  0
SECTION
  2
HEADER
  9
$ACADVER
  1
AC1009
  9
$INSBASE
 10
0.0
 20
0.0
 30
0.0
  9
$EXTMIN
 10
4224.18435000707
 20
5010.2651624210748
 30
0.0
  9
$EXTMAX
 10
4926.3487497136502
 20
5651.3040311652367
 30
0.0
  9
$LIMMIN
 10
0.0
 20
0.0
  9
$LIMMAX
 10
420.0
 20
297.0
  9
$ORTHOMODE
 70
     0
  9
$REGENMODE
 70
     1
  9
$FILLMODE
 70
     1
  9
$QTEXTMODE
 70
     0
  9
$MIRRTEXT
 70
     0
  9
$DRAGMODE
 70
     2
  9
$LTSCALE
 40
1.0
  9
$OSMODE
 70
    37
  9
$ATTMODE
 70
     1
  9
$TEXTSIZE
 40
2.5
  9
$TRACEWID
 40
1.0
  9
$TEXTSTYLE
  7
STANDARD
  9
$CLAYER
  8
0
  9
$CELTYPE
  6
BYLAYER
  9
$CECOLOR
 62
   256
  9
$DIMSCALE
 40
1.0
  9
$DIMASZ
 40
2.5
  9
$DIMEXO
 40
0.625
  9
$DIMDLI
 40
3.75
  9
$DIMRND
 40
0.0
  9
$DIMDLE
 40
0.0
  9
$DIMEXE
 40
1.25
  9
$DIMTP
 40
0.0
  9
$DIMTM
 40
0.0
  9
$DIMTXT
 40
2.5
  9
$DIMCEN
 40
2.5
  9
$DIMTSZ
 40
0.0
  9
$DIMTOL
 70
     0
  9
$DIMLIM
 70
     0
  9
$DIMTIH
 70
     0
  9
$DIMTOH
 70
     0
  9
$DIMSE1
 70
     0
  9
$DIMSE2
 70
     0
  9
$DIMTAD
 70
     1
  9
$DIMZIN
 70
     8
  9
$DIMBLK
  1

  9
$DIMASO
 70
     1
  9
$DIMSHO
 70
     1
  9
$DIMPOST
  1

  9
$DIMAPOST
  1

  9
$DIMALT
 70
     0
  9
$DIMALTD
 70
     3
  9
$DIMALTF
 40
0.03937007874016
  9
$DIMLFAC
 40
1.0
  9
$DIMTOFL
 70
     1
  9
$DIMTVP
 40
0.0
  9
$DIMTIX
 70
     0
  9
$DIMSOXD
 70
     0
  9
$DIMSAH
 70
     0
  9
$DIMBLK1
  1

  9
$DIMBLK2
  1

  9
$DIMSTYLE
  2
ISO-25
  9
$DIMCLRD
 70
     0
  9
$DIMCLRE
 70
     0
  9
$DIMCLRT
 70
     0
  9
$DIMTFAC
 40
1.0
  9
$DIMGAP
 40
0.625
  9
$LUNITS
 70
     2
  9
$LUPREC
 70
     2
  9
$SKETCHINC
 40
1.0
  9
$FILLETRAD
 40
0.0
  9
$AUNITS
 70
     0
  9
$AUPREC
 70
     0
  9
$MENU
  1
.
  9
$ELEVATION
 40
0.0
  9
$PELEVATION
 40
0.0
  9
$THICKNESS
 40
0.0
  9
$LIMCHECK
 70
     0
  9
$BLIPMODE
 70
     0
  9
$CHAMFERA
 40
0.0
  9
$CHAMFERB
 40
0.0
  9
$SKPOLY
 70
     0
  9
$TDCREATE
 40
2457458.8856753008
  9
$TDUPDATE
 40
2457466.697057303
  9
$TDINDWG
 40
0.0095378241
  9
$TDUSRTIMER
 40
0.0095324653
  9
$USRTIMER
 70
     1
  9
$ANGBASE
 50
0.0
  9
$ANGDIR
 70
     0
  9
$PDMODE
 70
     0
  9
$PDSIZE
 40
0.0
  9
$PLINEWID
 40
0.0
  9
$COORDS
 70
     1
  9
$SPLFRAME
 70
     0
  9
$SPLINETYPE
 70
     6
  9
$SPLINESEGS
 70
     8
  9
$ATTDIA
 70
     1
  9
$ATTREQ
 70
     1
  9
$HANDLING
 70
     1
  9
$HANDSEED
  5
110F
  9
$SURFTAB1
 70
     6
  9
$SURFTAB2
 70
     6
  9
$SURFTYPE
 70
     6
  9
$SURFU
 70
     6
  9
$SURFV
 70
     6
  9
$UCSNAME
  2

  9
$UCSORG
 10
0.0
 20
0.0
 30
0.0
  9
$UCSXDIR
 10
1.0
 20
0.0
 30
0.0
  9
$UCSYDIR
 10
0.0
 20
1.0
 30
0.0
  9
$PUCSNAME
  2

  9
$PUCSORG
 10
0.0
 20
0.0
 30
0.0
  9
$PUCSXDIR
 10
1.0
 20
0.0
 30
0.0
  9
$PUCSYDIR
 10
0.0
 20
1.0
 30
0.0
  9
$USERI1
 70
     0
  9
$USERI2
 70
     0
  9
$USERI3
 70
     0
  9
$USERI4
 70
     0
  9
$USERI5
 70
     0
  9
$USERR1
 40
0.0
  9
$USERR2
 40
0.0
  9
$USERR3
 40
0.0
  9
$USERR4
 40
0.0
  9
$USERR5
 40
0.0
  9
$WORLDVIEW
 70
     1
  9
$SHADEDGE
 70
     3
  9
$SHADEDIF
 70
    70
  9
$TILEMODE
 70
     1
  9
$MAXACTVP
 70
    64
  9
$PLIMCHECK
 70
     0
  9
$PEXTMIN
 10
0.0
 20
0.0
 30
0.0
  9
$PEXTMAX
 10
0.0
 20
0.0
 30
0.0
  9
$PLIMMIN
 10
0.0
 20
0.0
  9
$PLIMMAX
 10
12.0
 20
9.0
  9
$UNITMODE
 70
     0
  9
$VISRETAIN
 70
     1
  9
$PLINEGEN
 70
     0
  9
$PSLTSCALE
 70
     1
  0
ENDSEC
  0
SECTION
  2
TABLES
  0
TABLE
  2
VPORT
 70
     1
  0
VPORT
  2
*ACTIVE
 70
     0
 10
0.0
 20
0.0
 11
1.0
 21
1.0
 12
4634.521233523612
 22
5322.4863805101841
 13
0.0
 23
0.0
 14
10.0
 24
10.0
 15
10.0
 25
10.0
 16
0.0
 26
0.0
 36
1.0
 17
0.0
 27
0.0
 37
0.0
 40
1217.2391499777241
 41
2.3412204234122038
 42
50.0
 43
0.0
 44
0.0
 50
0.0
 51
0.0
 71
     0
 72
  1000
 73
     1
 74
     3
 75
     0
 76
     0
 77
     0
 78
     0
  0
ENDTAB
  0
TABLE
  2
LTYPE
 70
    14
  0
LTYPE
  2
CONTINUOUS
 70
     0
  3
Solid line
 72
    65
 73
     0
 40
0.0
  0
LTYPE
  2
HIDDEN
 70
     0
  3
Hidden __ __ __ __ __ __ __ __ __ __ __ __ __ _
 72
    65
 73
     2
 40
9.5249999999999968
 49
6.349999999999997
 49
-3.174999999999998
  0
LTYPE
  2
PHANTOM2
 70
     0
  3
Phantom (.5x) ___ _ _ ___ _ _ ___ _ _ ___ _ _
 72
    65
 73
     6
 40
31.75
 49
15.875
 49
-3.174999999999998
 49
3.174999999999998
 49
-3.174999999999998
 49
3.174999999999998
 49
-3.174999999999998
  0
LTYPE
  2
CENTER
 70
     0
  3
Center ____ _ ____ _ ____ _ ____ _ ____ _ ____
 72
    65
 73
     4
 40
50.799999999999997
 49
31.75
 49
-6.349999999999997
 49
6.349999999999997
 49
-6.349999999999997
  0
LTYPE
  2
AM_ISO02W050
 70
     0
  3
__ __ __ __ __ __ __ __ __ __ __ __ __ __ __
 72
    65
 73
     2
 40
7.5
 49
6.0
 49
-1.5
  0
LTYPE
  2
AM_ISO08W050
 70
     0
  3
____ . ____ . ____ . ____ . ____ . ____ . ____
 72
    65
 73
     4
 40
18.0
 49
12.0
 49
-1.5
 49
3.0
 49
-1.5
  0
LTYPE
  2
AM_ISO09W050
 70
     0
  3
_____ . . _____ . . _____ . . ____ .. ____
 72
    65
 73
     6
 40
22.5
 49
12.0
 49
-1.5
 49
3.0
 49
-1.5
 49
3.0
 49
-1.5
  0
LTYPE
  2
AMCONSTR
 70
     0
  3
_______________________
 72
    65
 73
     2
 40
9999.0
 49
9999.0
 49
0.0
  0
LTYPE
  2
AM_ISO08W050X2
 70
     0
  3
__ . __ . __ . __ . __ . __
 72
    65
 73
     4
 40
9.0
 49
6.0
 49
-0.75
 49
1.5
 49
-0.75
  0
LTYPE
  2
AM_ISO02W050X2
 70
     0
  3
 _ _ _ _ _ _ _ _ _ _ _ _
 72
    65
 73
     2
 40
3.75
 49
3.0
 49
-0.75
  0
LTYPE
  2
AMZIGZAG
 70
     0
  3
/\/-/\/-/\/-/\/-/\/-/\/
 72
    65
 73
     2
 40
11.0001
 49
0.0001
 49
-11.0
  0
LTYPE
  2
ACISOWELD
 70
     0
  3
_ _ _ _ _
 72
    65
 73
     2
 40
2.0
 49
2.0
 49
-1.0
  0
LTYPE
  2
ACISOTGL
 70
     0
  3
_ _ _ _ _
 72
    65
 73
     2
 40
3.0
 49
2.0
 49
-1.0
  0
LTYPE
  2
ACISOTGB
 70
     0
  3
__ . . __ . .
 72
    65
 73
     6
 40
9.0
 49
4.0
 49
-1.0
 49
1.0
 49
-1.0
 49
1.0
 49
-1.0
  0
ENDTAB
  0
TABLE
  2
LAYER
 70
     6
  0
LAYER
  2
0
 70
     0
 62
     7
  6
CONTINUOUS
  0
LAYER
  2
DEFPOINTS
 70
     0
 62
     7
  6
CONTINUOUS
  0
LAYER
  2
\U+5916\U+6846\U+7EBF1
 70
     0
 62
     3
  6
CONTINUOUS
  0
LAYER
  2
\U+5916\U+6846\U+7EBF2
 70
     0
 62
     6
  6
CONTINUOUS
  0
LAYER
  2
\U+6807\U+6CE8
 70
     0
 62
     1
  6
CONTINUOUS
  0
LAYER
  2
\U+6CE8\U+91CA
 70
     0
 62
     7
  6
CONTINUOUS
  0
ENDTAB
  0
TABLE
  2
STYLE
 70
     6
  0
STYLE
  2
STANDARD
 70
     0
 40
0.0
 41
1.0
 50
0.0
 71
     0
 42
2.5
  3
txt
  4

  0
STYLE
  2
ANNOTATIVE
 70
     0
 40
0.0
 41
1.0
 50
0.0
 71
     0
 42
2.5
  3
txt
  4

  0
STYLE
  2
\U+6837\U+5F0F_1
 70
     0
 40
0.0
 41
1.0
 50
0.0
 71
     0
 42
3.0
  3
txt
  4

  0
STYLE
  2

 70
     1
 40
0.0
 41
1.0
 50
0.0
 71
     0
 42
2.5
  3
genltshp.shx
  4

  0
STYLE
  2
ACISOTS
 70
     0
 40
0.0
 41
1.0
 50
0.0
 71
     0
 42
2.5
  3
isocp.shx
  4

  0
STYLE
  2
ACISOGDT
 70
     0
 40
0.0
 41
1.0
 50
0.0
 71
     0
 42
2.5
  3
amgdt.shx
  4

  0
ENDTAB
  0
TABLE
  2
VIEW
 70
     0
  0
ENDTAB
  0
TABLE
  2
UCS
 70
     0
  0
ENDTAB
  0
TABLE
  2
APPID
 70
    20
  0
APPID
  2
ACAD
 70
     0
  0
APPID
  2
ACAD_PSEXT
 70
     0
  0
APPID
  2
ACADANNOPO
 70
     0
  0
APPID
  2
ACADANNOTATIVE
 70
     0
  0
APPID
  2
ACAD_DSTYLE_DIMJAG
 70
     0
  0
APPID
  2
ACAD_DSTYLE_DIMTALN
 70
     0
  0
APPID
  2
ACAD_MLEADERVER
 70
     0
  0
APPID
  2
ACAD_DSTYLE_DIMBREAK
 70
     0
  0
APPID
  2
ACAECLAYERSTANDARD
 70
     0
  0
APPID
  2
ACAD_DSTYLE_DIMRADIAL_EXTENSION
 70
     0
  0
APPID
  2
MCAD_NO_VIS
 70
     0
  0
APPID
  2
ACAD_TEMP_GRAPHIC
 70
     0
  0
APPID
  2
ACATTRIBSERVICES
 70
     0
  0
APPID
  2
DESIGNERASSEMBLIES
 70
     0
  0
APPID
  2
ACAD_NAV_VCDISPLAY
 70
     0
  0
APPID
  2
ACAD_EXEMPT_FROM_CAD_STANDARDS
 70
     0
  0
APPID
  2
ACAD_DSTYLE_DIMARC_LENGTH_
 70
     0
  0
APPID
  2
ACAD_DSTYLE_DIM_LINETYPE
 70
     0
  0
APPID
  2
ACAD_DSTYLE_DIM_EXT1_LINETYPE
 70
     0
  0
APPID
  2
ACAD_DSTYLE_DIM_EXT2_LINETYPE
 70
     0
  0
ENDTAB
  0
TABLE
  2
DIMSTYLE
 70
    13
  0
DIMSTYLE
  2
STANDARD
 70
     0
  3

  4

  5

  6

  7

 40
1.0
 41
0.18
 42
0.0625
 43
0.38
 44
0.18
 45
0.0
 46
0.0
 47
0.0
 48
0.0
140
0.18
141
0.09
142
0.0
143
25.399999999999999
144
1.0
145
0.0
146
1.0
147
0.09
 71
     0
 72
     0
 73
     1
 74
     1
 75
     0
 76
     0
 77
     0
 78
     0
170
     0
171
     2
172
     0
173
     0
174
     0
175
     0
176
     0
177
     0
178
     0
  0
DIMSTYLE
  2
ANNOTATIVE
 70
     0
  3

  4

  5

  6

  7

 40
0.0
 41
2.5
 42
0.625
 43
3.75
 44
1.25
 45
0.0
 46
0.0
 47
0.0
 48
0.0
140
2.5
141
2.5
142
0.0
143
0.03937007874016
144
1.0
145
0.0
146
1.0
147
0.625
 71
     0
 72
     0
 73
     0
 74
     0
 75
     0
 76
     0
 77
     1
 78
     8
170
     0
171
     3
172
     1
173
     0
174
     0
175
     0
176
     0
177
     0
178
     0
  0
DIMSTYLE
  2
ISO-25
 70
     0
  3

  4

  5

  6

  7

 40
1.0
 41
2.5
 42
0.625
 43
3.75
 44
1.25
 45
0.0
 46
0.0
 47
0.0
 48
0.0
140
2.5
141
2.5
142
0.0
143
0.03937007874016
144
1.0
145
0.0
146
1.0
147
0.625
 71
     0
 72
     0
 73
     0
 74
     0
 75
     0
 76
     0
 77
     1
 78
     8
170
     0
171
     3
172
     1
173
     0
174
     0
175
     0
176
     0
177
     0
178
     0
  0
DIMSTYLE
  2
1-8-L
 70
     0
  3

  4

  5

  6

  7

 40
8.0
 41
1.5
 42
0.625
 43
3.75
 44
1.25
 45
0.0
 46
0.0
 47
0.0
 48
0.0
140
2.299999999999998
141
2.5
142
0.0
143
0.03937007874016
144
1.0
145
0.0
146
1.0
147
0.625
 71
     0
 72
     0
 73
     0
 74
     0
 75
     0
 76
     0
 77
     1
 78
     8
170
     0
171
     8
172
     1
173
     0
174
     0
175
     0
176
     0
177
     0
178
     0
  0
DIMSTYLE
  2
1-10-L
 70
     0
  3

  4

  5

  6

  7

 40
10.0
 41
1.5
 42
0.625
 43
3.75
 44
1.25
 45
0.0
 46
0.0
 47
0.0
 48
0.0
140
2.299999999999998
141
2.5
142
0.0
143
0.03937007874016
144
1.0
145
0.0
146
1.0
147
0.625
 71
     0
 72
     0
 73
     0
 74
     0
 75
     0
 76
     0
 77
     1
 78
     8
170
     0
171
     8
172
     1
173
     0
174
     0
175
     0
176
     0
177
     0
178
     0
  0
DIMSTYLE
  2
1-8
 70
     0
  3

  4

  5

  6

  7

 40
8.0
 41
2.5
 42
0.625
 43
3.75
 44
1.25
 45
0.0
 46
0.0
 47
0.5
 48
0.5
140
2.299999999999998
141
2.5
142
0.0
143
0.03937007874016
144
1.0
145
0.0
146
1.0
147
0.625
 71
     1
 72
     0
 73
     0
 74
     0
 75
     0
 76
     0
 77
     1
 78
     8
170
     0
171
     8
172
     1
173
     0
174
     0
175
     0
176
     0
177
     0
178
     0
  0
DIMSTYLE
  2
AM_ISO
 70
     0
  3

  4
"
  5

  6

  7

 40
1.0
 41
3.5
 42
1.0
 43
10.0
 44
1.0
 45
0.0
 46
0.0
 47
0.1
 48
0.1
140
3.5
141
0.0
142
0.0
143
0.0393701
144
1.0
145
0.0
146
0.71
147
1.5
 71
     0
 72
     0
 73
     0
 74
     0
 75
     0
 76
     0
 77
     1
 78
     8
170
     0
171
     2
172
     1
173
     0
174
     0
175
     0
176
   256
177
   256
178
     2
  0
DIMSTYLE
  2
AM_ISO$3
 70
     0
  3

  4
"
  5

  6

  7

 40
1.0
 41
3.5
 42
1.0
 43
10.0
 44
1.0
 45
0.0
 46
0.0
 47
0.1
 48
0.1
140
3.5
141
0.0
142
0.0
143
0.0393701
144
1.0
145
0.0
146
0.71
147
1.5
 71
     0
 72
     0
 73
     0
 74
     1
 75
     0
 76
     0
 77
     1
 78
     8
170
     0
171
     2
172
     0
173
     0
174
     0
175
     0
176
   256
177
   256
178
     2
  0
DIMSTYLE
  2
AM_ISO$4
 70
     0
  3

  4
"
  5

  6

  7

 40
1.0
 41
3.5
 42
1.0
 43
10.0
 44
1.0
 45
0.0
 46
0.0
 47
0.1
 48
0.1
140
3.5
141
0.0
142
0.0
143
0.0393701
144
1.0
145
0.0
146
0.71
147
1.5
 71
     0
 72
     0
 73
     0
 74
     1
 75
     0
 76
     0
 77
     1
 78
     8
170
     0
171
     2
172
     0
173
     0
174
     0
175
     0
176
   256
177
   256
178
     2
  0
DIMSTYLE
  2
AM_ISO$6
 70
     0
  3

  4
"
  5

  6

  7

 40
1.0
 41
3.5
 42
1.0
 43
10.0
 44
1.0
 45
0.0
 46
0.0
 47
0.1
 48
0.1
140
3.5
141
0.0
142
0.0
143
0.0393701
144
1.0
145
0.0
146
0.71
147
1.5
 71
     0
 72
     0
 73
     0
 74
     0
 75
     0
 76
     0
 77
     0
 78
     8
170
     0
171
     2
172
     1
173
     0
174
     0
175
     0
176
   256
177
   256
178
     2
  0
DIMSTYLE
  2
AM_ISO$7
 70
     0
  3

  4
"
  5

  6

  7

 40
1.0
 41
3.5
 42
1.0
 43
10.0
 44
1.0
 45
0.0
 46
0.0
 47
0.1
 48
0.1
140
3.5
141
0.0
142
0.0
143
0.0393701
144
1.0
145
0.0
146
0.71
147
1.5
 71
     0
 72
     0
 73
     0
 74
     0
 75
     0
 76
     0
 77
     1
 78
     8
170
     0
171
     2
172
     1
173
     0
174
     0
175
     0
176
   256
177
   256
178
     2
  0
DIMSTYLE
  2
AM_ISO$SF
 70
     0
  3

  4
"
  5

  6

  7

 40
1.0
 41
3.5
 42
1.0
 43
10.0
 44
1.0
 45
0.0
 46
0.0
 47
0.1
 48
0.1
140
3.5
141
0.0
142
0.0
143
0.0393701
144
1.0
145
0.0
146
0.71
147
1.5
 71
     0
 72
     0
 73
     0
 74
     0
 75
     1
 76
     1
 77
     1
 78
     8
170
     0
171
     2
172
     1
173
     0
174
     0
175
     0
176
   256
177
   256
178
     2
  0
DIMSTYLE
  2
AM_ISO$SH
 70
     0
  3

  4
"
  5

  6
GENAXEH
  7

 40
1.0
 41
3.5
 42
1.0
 43
10.0
 44
1.0
 45
0.0
 46
0.0
 47
0.1
 48
0.1
140
3.5
141
0.0
142
0.0
143
0.0393701
144
2.0
145
0.0
146
0.71
147
1.5
 71
     0
 72
     0
 73
     0
 74
     0
 75
     1
 76
     1
 77
     1
 78
     8
170
     0
171
     2
172
     1
173
     1
174
     0
175
     0
176
   256
177
   256
178
     2
  0
ENDTAB
  0
ENDSEC
  0
SECTION
  2
BLOCKS
  0
BLOCK
  8
0
  2
$MODEL_SPACE
 70
     0
 10
0.0
 20
0.0
 30
0.0
  3
$MODEL_SPACE
  1

  0
ENDBLK
  5
21
  8
0
  0
BLOCK
 67
     1
  8
0
  2
$PAPER_SPACE
 70
     0
 10
0.0
 20
0.0
 30
0.0
  3
$PAPER_SPACE
  1

  0
ENDBLK
  5
D5
 67
     1
  8
0
  0
BLOCK
  8
0
  2
*D1
 70
     1
 10
0.0
 20
0.0
 30
0.0
  3
*D1
  1

  0
LINE
  5
1F6
  8
\U+6807\U+6CE8
 62
     0
 10
102515.83208974689
 20
-53567.361538929232
 30
0.0
 11
102515.83208974689
 21
-53474.817281969881
 31
0.0
  0
LINE
  5
1F7
  8
\U+6807\U+6CE8
 62
     0
 10
103161.83208974689
 20
-53554.997005989062
 30
0.0
 11
103161.83208974689
 21
-53474.817281969881
 31
0.0
  0
LINE
  5
1F8
  8
\U+6807\U+6CE8
 62
     0
 10
102530.83208974689
 20
-53487.317281969867
 30
0.0
 11
103146.83208974689
 21
-53487.317281969867
 31
0.0
  0
SOLID
  5
1F9
  8
\U+6807\U+6CE8
 62
     0
 10
102530.83208974689
 20
-53484.817281969881
 30
0.0
 11
102530.83208974689
 21
-53489.817281969881
 31
0.0
 12
102515.83208974689
 22
-53487.317281969867
 32
0.0
 13
102515.83208974689
 23
-53487.317281969867
 33
0.0
  0
SOLID
  5
1FA
  8
\U+6807\U+6CE8
 62
     0
 10
103146.83208974689
 20
-53484.817281969881
 30
0.0
 11
103146.83208974689
 21
-53489.817281969881
 31
0.0
 12
103161.83208974689
 22
-53487.317281969867
 32
0.0
 13
103161.83208974689
 23
-53487.317281969867
 33
0.0
  0
INSERT
  5
1FB
  8
0
  2
*U131
 10
0.0
 20
0.0
 30
0.0
  0
POINT
  5
1FC
  8
DEFPOINTS
 62
     0
 10
102515.83208974689
 20
-53573.611538929239
 30
0.0
  0
POINT
  5
1FD
  8
DEFPOINTS
 62
     0
 10
103161.83208974689
 20
-53561.247005989077
 30
0.0
  0
POINT
  5
1FE
  8
DEFPOINTS
 62
     0
 10
103161.83208974689
 20
-53487.317281969867
 30
0.0
  0
ENDBLK
  5
1FF
  8
0
  0
BLOCK
  8
0
  2
*D2
 70
     1
 10
0.0
 20
0.0
 30
0.0
  3
*D2
  1

  0
LINE
  5
202
  8
\U+6807\U+6CE8
 62
     0
 10
102526.66358358299
 20
-53523.514388493757
 30
0.0
 11
102436.6005389304
 21
-53523.514388493757
 31
0.0
  0
LINE
  5
203
  8
\U+6807\U+6CE8
 62
     0
 10
102485.83208974689
 20
-53543.514388493742
 30
0.0
 11
102436.6005389304
 21
-53543.514388493742
 31
0.0
  0
LINE
  5
204
  8
\U+6807\U+6CE8
 62
     0
 10
102446.6005389304
 20
-53555.514388493742
 30
0.0
 11
102446.6005389304
 21
-53567.51438849375
 31
0.0
  0
LINE
  5
205
  8
\U+6807\U+6CE8
 62
     0
 10
102446.6005389304
 20
-53511.514388493757
 30
0.0
 11
102446.6005389304
 21
-53459.723912303263
 31
0.0
  0
LINE
  5
206
  8
\U+6807\U+6CE8
 62
     0
 10
102446.6005389304
 20
-53543.514388493742
 30
0.0
 11
102446.6005389304
 21
-53523.514388493757
 31
0.0
  0
SOLID
  5
207
  8
\U+6807\U+6CE8
 62
     0
 10
102444.6005389304
 20
-53555.514388493742
 30
0.0
 11
102448.6005389304
 21
-53555.514388493742
 31
0.0
 12
102446.6005389304
 22
-53543.514388493742
 32
0.0
 13
102446.6005389304
 23
-53543.514388493742
 33
0.0
  0
SOLID
  5
208
  8
\U+6807\U+6CE8
 62
     0
 10
102444.6005389304
 20
-53511.514388493757
 30
0.0
 11
102448.6005389304
 21
-53511.514388493757
 31
0.0
 12
102446.6005389304
 22
-53523.514388493757
 32
0.0
 13
102446.6005389304
 23
-53523.514388493757
 33
0.0
  0
INSERT
  5
209
  8
0
  2
*U132
 10
0.0
 20
0.0
 30
0.0
  0
POINT
  5
20A
  8
DEFPOINTS
 62
     0
 10
102531.66358358299
 20
-53523.514388493757
 30
0.0
  0
POINT
  5
20B
  8
DEFPOINTS
 62
     0
 10
102490.832089747
 20
-53543.514388493742
 30
0.0
  0
POINT
  5
20C
  8
DEFPOINTS
 62
     0
 10
102446.6005389304
 20
-53543.514388493742
 30
0.0
  0
ENDBLK
  5
20D
  8
0
  0
BLOCK
  8
0
  2
*D3
 70
     1
 10
0.0
 20
0.0
 30
0.0
  3
*D3
  1

  0
LINE
  5
210
  8
\U+6807\U+6CE8
 62
     0
 10
102495.83208974689
 20
-53751.71438849374
 30
0.0
 11
102495.83208974689
 21
-53796.751597510163
 31
0.0
  0
LINE
  5
211
  8
\U+6807\U+6CE8
 62
     0
 10
102515.83208974689
 20
-53751.71438849374
 30
0.0
 11
102515.83208974689
 21
-53796.751597510163
 31
0.0
  0
LINE
  5
212
  8
\U+6807\U+6CE8
 62
     0
 10
102483.83208974689
 20
-53786.751597510163
 30
0.0
 11
102471.83208974689
 21
-53786.751597510163
 31
0.0
  0
LINE
  5
213
  8
\U+6807\U+6CE8
 62
     0
 10
102527.83208974689
 20
-53786.751597510163
 30
0.0
 11
102579.6225659374
 21
-53786.751597510163
 31
0.0
  0
LINE
  5
214
  8
\U+6807\U+6CE8
 62
     0
 10
102495.83208974689
 20
-53786.751597510163
 30
0.0
 11
102515.83208974689
 21
-53786.751597510163
 31
0.0
  0
SOLID
  5
215
  8
\U+6807\U+6CE8
 62
     0
 10
102483.83208974689
 20
-53784.751597510163
 30
0.0
 11
102483.83208974689
 21
-53788.751597510163
 31
0.0
 12
102495.83208974689
 22
-53786.751597510163
 32
0.0
 13
102495.83208974689
 23
-53786.751597510163
 33
0.0
  0
SOLID
  5
216
  8
\U+6807\U+6CE8
 62
     0
 10
102527.83208974689
 20
-53784.751597510163
 30
0.0
 11
102527.83208974689
 21
-53788.751597510163
 31
0.0
 12
102515.83208974689
 22
-53786.751597510163
 32
0.0
 13
102515.83208974689
 23
-53786.751597510163
 33
0.0
  0
INSERT
  5
217
  8
0
  2
*U133
 10
0.0
 20
0.0
 30
0.0
  0
POINT
  5
218
  8
DEFPOINTS
 62
     0
 10
102495.83208974689
 20
-53746.714388493732
 30
0.0
  0
POINT
  5
219
  8
DEFPOINTS
 62
     0
 10
102515.83208974689
 20
-53746.714388493732
 30
0.0
  0
POINT
  5
21A
  8
DEFPOINTS
 62
     0
 10
102515.83208974689
 20
-53786.751597510163
 30
0.0
  0
ENDBLK
  5
21B
  8
0
  0
BLOCK
  8
0
  2
*D4
 70
     1
 10
0.0
 20
0.0
 30
0.0
  3
*D4
  1

  0
LINE
  5
21E
  8
\U+6807\U+6CE8
 62
     0
 10
102495.1820897469
 20
-53523.514388493757
 30
0.0
 11
102384.66427279099
 21
-53523.514388493757
 31
0.0
  0
LINE
  5
21F
  8
\U+6807\U+6CE8
 62
     0
 10
102495.1820897469
 20
-53969.914388493751
 30
0.0
 11
102384.66427279099
 21
-53969.914388493751
 31
0.0
  0
LINE
  5
220
  8
\U+6807\U+6CE8
 62
     0
 10
102397.16427279099
 20
-53538.514388493757
 30
0.0
 11
102397.16427279099
 21
-53954.914388493751
 31
0.0
  0
SOLID
  5
221
  8
\U+6807\U+6CE8
 62
     0
 10
102394.66427279099
 20
-53538.514388493757
 30
0.0
 11
102399.66427279099
 21
-53538.514388493757
 31
0.0
 12
102397.16427279099
 22
-53523.514388493757
 32
0.0
 13
102397.16427279099
 23
-53523.514388493757
 33
0.0
  0
SOLID
  5
222
  8
\U+6807\U+6CE8
 62
     0
 10
102394.66427279099
 20
-53954.914388493751
 30
0.0
 11
102399.66427279099
 21
-53954.914388493751
 31
0.0
 12
102397.16427279099
 22
-53969.914388493751
 32
0.0
 13
102397.16427279099
 23
-53969.914388493751
 33
0.0
  0
INSERT
  5
223
  8
0
  2
*U134
 10
0.0
 20
0.0
 30
0.0
  0
POINT
  5
224
  8
DEFPOINTS
 62
     0
 10
102501.4320897469
 20
-53523.514388493757
 30
0.0
  0
POINT
  5
225
  8
DEFPOINTS
 62
     0
 10
102501.4320897469
 20
-53969.914388493751
 30
0.0
  0
POINT
  5
226
  8
DEFPOINTS
 62
     0
 10
102397.16427279099
 20
-53969.914388493751
 30
0.0
  0
ENDBLK
  5
227
  8
0
  0
BLOCK
  8
0
  2
*D5
 70
     1
 10
0.0
 20
0.0
 30
0.0
  3
*D5
  1

  0
LINE
  5
22A
  8
\U+6807\U+6CE8
 62
     0
 10
105194.0841928547
 20
-53789.616436127282
 30
0.0
 11
105194.0841928547
 21
-53823.925222721358
 31
0.0
  0
LINE
  5
22B
  8
\U+6807\U+6CE8
 62
     0
 10
105214.0841928547
 20
-53746.184466040177
 30
0.0
 11
105214.0841928547
 21
-53823.925222721358
 31
0.0
  0
LINE
  5
22C
  8
\U+6807\U+6CE8
 62
     0
 10
105182.0841928547
 20
-53813.925222721358
 30
0.0
 11
105170.0841928547
 21
-53813.925222721358
 31
0.0
  0
LINE
  5
22D
  8
\U+6807\U+6CE8
 62
     0
 10
105226.0841928547
 20
-53813.925222721358
 30
0.0
 11
105277.87466904509
 21
-53813.925222721358
 31
0.0
  0
LINE
  5
22E
  8
\U+6807\U+6CE8
 62
     0
 10
105194.0841928547
 20
-53813.925222721358
 30
0.0
 11
105214.0841928547
 21
-53813.925222721358
 31
0.0
  0
SOLID
  5
22F
  8
\U+6807\U+6CE8
 62
     0
 10
105182.0841928547
 20
-53811.925222721373
 30
0.0
 11
105182.0841928547
 21
-53815.925222721373
 31
0.0
 12
105194.0841928547
 22
-53813.925222721358
 32
0.0
 13
105194.0841928547
 23
-53813.925222721358
 33
0.0
  0
SOLID
  5
230
  8
\U+6807\U+6CE8
 62
     0
 10
105226.0841928547
 20
-53811.925222721373
 30
0.0
 11
105226.0841928547
 21
-53815.925222721373
 31
0.0
 12
105214.0841928547
 22
-53813.925222721358
 32
0.0
 13
105214.0841928547
 23
-53813.925222721358
 33
0.0
  0
INSERT
  5
231
  8
0
  2
*U135
 10
0.0
 20
0.0
 30
0.0
  0
POINT
  5
232
  8
DEFPOINTS
 62
     0
 10
105194.0841928547
 20
-53784.616436127282
 30
0.0
  0
POINT
  5
233
  8
DEFPOINTS
 62
     0
 10
105214.0841928547
 20
-53741.184466040177
 30
0.0
  0
POINT
  5
234
  8
DEFPOINTS
 62
     0
 10
105214.0841928547
 20
-53813.925222721358
 30
0.0
  0
ENDBLK
  5
235
  8
0
  0
BLOCK
  8
0
  2
*D6
 70
     1
 10
0.0
 20
0.0
 30
0.0
  3
*D6
  1

  0
LINE
  5
238
  8
\U+6807\U+6CE8
 62
     0
 10
102524.58208974689
 20
-53543.514388493742
 30
0.0
 11
102434.1005389304
 21
-53543.514388493742
 31
0.0
  0
LINE
  5
239
  8
\U+6807\U+6CE8
 62
     0
 10
102524.58208974689
 20
-53949.914388493751
 30
0.0
 11
102434.1005389304
 21
-53949.914388493751
 31
0.0
  0
LINE
  5
23A
  8
\U+6807\U+6CE8
 62
     0
 10
102446.6005389304
 20
-53558.514388493742
 30
0.0
 11
102446.6005389304
 21
-53934.914388493751
 31
0.0
  0
SOLID
  5
23B
  8
\U+6807\U+6CE8
 62
     0
 10
102444.1005389304
 20
-53558.514388493742
 30
0.0
 11
102449.1005389304
 21
-53558.514388493742
 31
0.0
 12
102446.6005389304
 22
-53543.514388493742
 32
0.0
 13
102446.6005389304
 23
-53543.514388493742
 33
0.0
  0
SOLID
  5
23C
  8
\U+6807\U+6CE8
 62
     0
 10
102444.1005389304
 20
-53934.914388493751
 30
0.0
 11
102449.1005389304
 21
-53934.914388493751
 31
0.0
 12
102446.6005389304
 22
-53949.914388493751
 32
0.0
 13
102446.6005389304
 23
-53949.914388493751
 33
0.0
  0
INSERT
  5
23D
  8
0
  2
*U136
 10
0.0
 20
0.0
 30
0.0
  0
POINT
  5
23E
  8
DEFPOINTS
 62
     0
 10
102530.83208974689
 20
-53543.514388493742
 30
0.0
  0
POINT
  5
23F
  8
DEFPOINTS
 62
     0
 10
102530.83208974689
 20
-53949.914388493751
 30
0.0
  0
POINT
  5
240
  8
DEFPOINTS
 62
     0
 10
102446.6005389304
 20
-53949.914388493751
 30
0.0
  0
ENDBLK
  5
241
  8
0
  0
BLOCK
  8
0
  2
*D7
 70
     1
 10
0.0
 20
0.0
 30
0.0
  3
*D7
  1

  0
LINE
  5
244
  8
\U+6807\U+6CE8
 62
     0
 10
102489.58208974689
 20
-54140.052762575382
 30
0.0
 11
102422.05900863709
 21
-54140.052762575382
 31
0.0
  0
LINE
  5
245
  8
\U+6807\U+6CE8
 62
     0
 10
102537.6744557169
 20
-54368.652762575373
 30
0.0
 11
102422.05900863709
 21
-54368.652762575373
 31
0.0
  0
LINE
  5
246
  8
\U+6807\U+6CE8
 62
     0
 10
102434.55900863709
 20
-54155.052762575368
 30
0.0
 11
102434.55900863709
 21
-54353.652762575373
 31
0.0
  0
SOLID
  5
247
  8
\U+6807\U+6CE8
 62
     0
 10
102432.05900863709
 20
-54155.052762575368
 30
0.0
 11
102437.05900863709
 21
-54155.052762575368
 31
0.0
 12
102434.55900863709
 22
-54140.052762575382
 32
0.0
 13
102434.55900863709
 23
-54140.052762575382
 33
0.0
  0
SOLID
  5
248
  8
\U+6807\U+6CE8
 62
     0
 10
102432.05900863709
 20
-54353.652762575373
 30
0.0
 11
102437.05900863709
 21
-54353.652762575373
 31
0.0
 12
102434.55900863709
 22
-54368.652762575373
 32
0.0
 13
102434.55900863709
 23
-54368.652762575373
 33
0.0
  0
INSERT
  5
249
  8
0
  2
*U137
 10
0.0
 20
0.0
 30
0.0
  0
POINT
  5
24A
  8
DEFPOINTS
 62
     0
 10
102495.83208974689
 20
-54140.052762575382
 30
0.0
  0
POINT
  5
24B
  8
DEFPOINTS
 62
     0
 10
102543.9244557169
 20
-54368.652762575373
 30
0.0
  0
POINT
  5
24C
  8
DEFPOINTS
 62
     0
 10
102434.55900863709
 20
-54368.652762575373
 30
0.0
  0
ENDBLK
  5
24D
  8
0
  0
BLOCK
  8
0
  2
*D8
 70
     1
 10
0.0
 20
0.0
 30
0.0
  3
*D8
  1

  0
LINE
  5
250
  8
\U+6807\U+6CE8
 62
     0
 10
102833.83208974689
 20
-53543.514388493742
 30
0.0
 11
102721.2457138054
 21
-53543.514388493742
 31
0.0
  0
LINE
  5
251
  8
\U+6807\U+6CE8
 62
     0
 10
102833.83208974689
 20
-53663.514388493757
 30
0.0
 11
102721.2457138054
 21
-53663.514388493757
 31
0.0
  0
LINE
  5
252
  8
\U+6807\U+6CE8
 62
     0
 10
102731.2457138054
 20
-53555.514388493742
 30
0.0
 11
102731.2457138054
 21
-53651.514388493757
 31
0.0
  0
SOLID
  5
253
  8
\U+6807\U+6CE8
 62
     0
 10
102729.2457138053
 20
-53555.514388493742
 30
0.0
 11
102733.2457138053
 21
-53555.514388493742
 31
0.0
 12
102731.2457138054
 22
-53543.514388493742
 32
0.0
 13
102731.2457138054
 23
-53543.514388493742
 33
0.0
  0
SOLID
  5
254
  8
\U+6807\U+6CE8
 62
     0
 10
102729.2457138053
 20
-53651.514388493757
 30
0.0
 11
102733.2457138053
 21
-53651.514388493757
 31
0.0
 12
102731.2457138054
 22
-53663.514388493757
 32
0.0
 13
102731.2457138054
 23
-53663.514388493757
 33
0.0
  0
INSERT
  5
255
  8
0
  2
*U138
 10
0.0
 20
0.0
 30
0.0
  0
POINT
  5
256
  8
DEFPOINTS
 62
     0
 10
102838.83208974689
 20
-53543.514388493742
 30
0.0
  0
POINT
  5
257
  8
DEFPOINTS
 62
     0
 10
102838.83208974689
 20
-53663.514388493757
 30
0.0
  0
POINT
  5
258
  8
DEFPOINTS
 62
     0
 10
102731.2457138054
 20
-53663.514388493757
 30
0.0
  0
ENDBLK
  5
259
  8
0
  0
BLOCK
  8
0
  2
*D9
 70
     1
 10
0.0
 20
0.0
 30
0.0
  3
*D9
  1

  0
LINE
  5
25C
  8
\U+6807\U+6CE8
 62
     0
 10
102573.2944061007
 20
-53609.450978286361
 30
0.0
 11
102528.91113187659
 21
-53556.210061941281
 31
0.0
  0
INSERT
  5
25D
  8
0
  2
*U139
 10
0.0
 20
0.0
 30
0.0
  0
SOLID
  5
25E
  8
\U+6807\U+6CE8
 62
     0
 10
102530.4473495782
 20
-53554.929423361049
 30
0.0
 11
102527.3749141749
 21
-53557.490700521528
 31
0.0
 12
102521.2273003951
 22
-53546.992755731531
 32
0.0
 13
102521.2273003951
 23
-53546.992755731531
 33
0.0
  0
POINT
  5
25F
  8
DEFPOINTS
 62
     0
 10
102521.2273003951
 20
-53546.992755731531
 30
0.0
  0
POINT
  5
260
  8
DEFPOINTS
 62
     0
 10
102530.83208974689
 20
-53558.514388493742
 30
0.0
  0
ENDBLK
  5
261
  8
0
  0
BLOCK
  8
0
  2
*D10
 70
     1
 10
0.0
 20
0.0
 30
0.0
  3
*D10
  1

  0
LINE
  5
264
  8
\U+6807\U+6CE8
 62
     0
 10
102589.36187630449
 20
-54305.351361972833
 30
0.0
 11
102541.86890674591
 21
-54355.837875485027
 31
0.0
  0
INSERT
  5
265
  8
0
  2
*U140
 10
0.0
 20
0.0
 30
0.0
  0
SOLID
  5
266
  8
\U+6807\U+6CE8
 62
     0
 10
102540.4121648062
 20
-54354.467509504357
 30
0.0
 11
102543.3256486857
 21
-54357.208241465683
 31
0.0
 12
102533.6467108619
 22
-54364.578327123541
 32
0.0
 13
102533.6467108619
 23
-54364.578327123541
 33
0.0
  0
POINT
  5
267
  8
DEFPOINTS
 62
     0
 10
102533.6467108619
 20
-54364.578327123541
 30
0.0
  0
POINT
  5
268
  8
DEFPOINTS
 62
     0
 10
102543.9244557169
 20
-54353.652762575352
 30
0.0
  0
ENDBLK
  5
269
  8
0
  0
BLOCK
  8
0
  2
*D11
 70
     1
 10
0.0
 20
0.0
 30
0.0
  3
*D11
  1

  0
LINE
  5
26C
  8
\U+6807\U+6CE8
 62
     0
 10
102495.83208974689
 20
-53522.264388493757
 30
0.0
 11
102495.83208974689
 21
-53423.631653018267
 31
0.0
  0
LINE
  5
26D
  8
\U+6807\U+6CE8
 62
     0
 10
103181.83208974689
 20
-53522.264388493757
 30
0.0
 11
103181.83208974689
 21
-53423.631653018267
 31
0.0
  0
LINE
  5
26E
  8
\U+6807\U+6CE8
 62
     0
 10
102510.83208974689
 20
-53436.131653018252
 30
0.0
 11
103166.83208974689
 21
-53436.131653018252
 31
0.0
  0
SOLID
  5
26F
  8
\U+6807\U+6CE8
 62
     0
 10
102510.83208974689
 20
-53433.631653018259
 30
0.0
 11
102510.83208974689
 21
-53438.631653018281
 31
0.0
 12
102495.83208974689
 22
-53436.131653018252
 32
0.0
 13
102495.83208974689
 23
-53436.131653018252
 33
0.0
  0
SOLID
  5
270
  8
\U+6807\U+6CE8
 62
     0
 10
103166.83208974689
 20
-53433.631653018259
 30
0.0
 11
103166.83208974689
 21
-53438.631653018281
 31
0.0
 12
103181.83208974689
 22
-53436.131653018252
 32
0.0
 13
103181.83208974689
 23
-53436.131653018252
 33
0.0
  0
INSERT
  5
271
  8
0
  2
*U141
 10
0.0
 20
0.0
 30
0.0
  0
POINT
  5
272
  8
DEFPOINTS
 62
     0
 10
102495.83208974689
 20
-53528.514388493742
 30
0.0
  0
POINT
  5
273
  8
DEFPOINTS
 62
     0
 10
103181.83208974689
 20
-53528.514388493742
 30
0.0
  0
POINT
  5
274
  8
DEFPOINTS
 62
     0
 10
103181.83208974689
 20
-53436.131653018252
 30
0.0
  0
ENDBLK
  5
275
  8
0
  0
BLOCK
  8
0
  2
*D12
 70
     1
 10
0.0
 20
0.0
 30
0.0
  3
*D12
  1

  0
LINE
  5
278
  8
\U+6807\U+6CE8
 62
     0
 10
105214.0841928547
 20
-53495.908019411982
 30
0.0
 11
105214.0841928547
 21
-53424.692602401708
 31
0.0
  0
LINE
  5
279
  8
\U+6807\U+6CE8
 62
     0
 10
105760.18419285469
 20
-53495.908019411982
 30
0.0
 11
105760.18419285469
 21
-53424.692602401708
 31
0.0
  0
LINE
  5
27A
  8
\U+6807\U+6CE8
 62
     0
 10
105226.0841928547
 20
-53434.692602401738
 30
0.0
 11
105748.18419285469
 21
-53434.692602401738
 31
0.0
  0
SOLID
  5
27B
  8
\U+6807\U+6CE8
 62
     0
 10
105226.0841928547
 20
-53432.69260240173
 30
0.0
 11
105226.0841928547
 21
-53436.69260240173
 31
0.0
 12
105214.0841928547
 22
-53434.692602401738
 32
0.0
 13
105214.0841928547
 23
-53434.692602401738
 33
0.0
  0
SOLID
  5
27C
  8
\U+6807\U+6CE8
 62
     0
 10
105748.18419285469
 20
-53432.69260240173
 30
0.0
 11
105748.18419285469
 21
-53436.69260240173
 31
0.0
 12
105760.18419285469
 22
-53434.692602401738
 32
0.0
 13
105760.18419285469
 23
-53434.692602401738
 33
0.0
  0
INSERT
  5
27D
  8
0
  2
*U142
 10
0.0
 20
0.0
 30
0.0
  0
POINT
  5
27E
  8
DEFPOINTS
 62
     0
 10
105214.0841928547
 20
-53500.908019411989
 30
0.0
  0
POINT
  5
27F
  8
DEFPOINTS
 62
     0
 10
105760.18419285469
 20
-53500.908019411989
 30
0.0
  0
POINT
  5
280
  8
DEFPOINTS
 62
     0
 10
105760.18419285469
 20
-53434.692602401738
 30
0.0
  0
ENDBLK
  5
281
  8
0
  0
BLOCK
  8
0
  2
*D13
 70
     1
 10
0.0
 20
0.0
 30
0.0
  3
*D13
  1

  0
LINE
  5
284
  8
\U+6807\U+6CE8
 62
     0
 10
105224.0841928547
 20
-53485.908019412003
 30
0.0
 11
105157.55206613371
 21
-53485.908019412003
 31
0.0
  0
LINE
  5
285
  8
\U+6807\U+6CE8
 62
     0
 10
105224.0841928547
 20
-53892.308019411998
 30
0.0
 11
105157.55206613371
 21
-53892.308019411998
 31
0.0
  0
LINE
  5
286
  8
\U+6807\U+6CE8
 62
     0
 10
105167.55206613371
 20
-53497.908019412003
 30
0.0
 11
105167.55206613371
 21
-53880.308019412012
 31
0.0
  0
SOLID
  5
287
  8
\U+6807\U+6CE8
 62
     0
 10
105165.55206613371
 20
-53497.908019412003
 30
0.0
 11
105169.55206613371
 21
-53497.908019412003
 31
0.0
 12
105167.55206613371
 22
-53485.908019412003
 32
0.0
 13
105167.55206613371
 23
-53485.908019412003
 33
0.0
  0
SOLID
  5
288
  8
\U+6807\U+6CE8
 62
     0
 10
105165.55206613371
 20
-53880.308019412012
 30
0.0
 11
105169.55206613371
 21
-53880.308019412012
 31
0.0
 12
105167.55206613371
 22
-53892.308019411998
 32
0.0
 13
105167.55206613371
 23
-53892.308019411998
 33
0.0
  0
INSERT
  5
289
  8
0
  2
*U143
 10
0.0
 20
0.0
 30
0.0
  0
POINT
  5
28A
  8
DEFPOINTS
 62
     0
 10
105229.0841928547
 20
-53485.908019412003
 30
0.0
  0
POINT
  5
28B
  8
DEFPOINTS
 62
     0
 10
105229.0841928547
 20
-53892.308019411998
 30
0.0
  0
POINT
  5
28C
  8
DEFPOINTS
 62
     0
 10
105167.55206613371
 20
-53892.308019411998
 30
0.0
  0
ENDBLK
  5
28D
  8
0
  0
BLOCK
  8
0
  2
*D14
 70
     1
 10
0.0
 20
0.0
 30
0.0
  3
*D14
  1

  0
LINE
  5
290
  8
\U+6807\U+6CE8
 62
     0
 10
105190.0341928547
 20
-54087.808821428684
 30
0.0
 11
105146.29935638919
 21
-54087.808821428684
 31
0.0
  0
LINE
  5
291
  8
\U+6807\U+6CE8
 62
     0
 10
105237.17655882471
 20
-54316.408821428682
 30
0.0
 11
105146.29935638919
 21
-54316.408821428682
 31
0.0
  0
LINE
  5
292
  8
\U+6807\U+6CE8
 62
     0
 10
105156.29935638919
 20
-54099.808821428684
 30
0.0
 11
105156.29935638919
 21
-54304.408821428682
 31
0.0
  0
SOLID
  5
293
  8
\U+6807\U+6CE8
 62
     0
 10
105154.29935638919
 20
-54099.808821428684
 30
0.0
 11
105158.29935638919
 21
-54099.808821428684
 31
0.0
 12
105156.29935638919
 22
-54087.808821428684
 32
0.0
 13
105156.29935638919
 23
-54087.808821428684
 33
0.0
  0
SOLID
  5
294
  8
\U+6807\U+6CE8
 62
     0
 10
105154.29935638919
 20
-54304.408821428682
 30
0.0
 11
105158.29935638919
 21
-54304.408821428682
 31
0.0
 12
105156.29935638919
 22
-54316.408821428682
 32
0.0
 13
105156.29935638919
 23
-54316.408821428682
 33
0.0
  0
INSERT
  5
295
  8
0
  2
*U144
 10
0.0
 20
0.0
 30
0.0
  0
POINT
  5
296
  8
DEFPOINTS
 62
     0
 10
105195.0341928547
 20
-54087.808821428684
 30
0.0
  0
POINT
  5
297
  8
DEFPOINTS
 62
     0
 10
105242.17655882471
 20
-54316.408821428682
 30
0.0
  0
POINT
  5
298
  8
DEFPOINTS
 62
     0
 10
105156.29935638919
 20
-54316.408821428682
 30
0.0
  0
ENDBLK
  5
299
  8
0
  0
BLOCK
  8
0
  2
*D15
 70
     1
 10
0.0
 20
0.0
 30
0.0
  3
*D15
  1

  0
LINE
  5
29C
  8
\U+6807\U+6CE8
 62
     0
 10
105482.1341928547
 20
-53485.908019412003
 30
0.0
 11
105377.0665832603
 21
-53485.908019412003
 31
0.0
  0
LINE
  5
29D
  8
\U+6807\U+6CE8
 62
     0
 10
105482.1341928547
 20
-53605.908019411982
 30
0.0
 11
105377.0665832603
 21
-53605.908019411982
 31
0.0
  0
LINE
  5
29E
  8
\U+6807\U+6CE8
 62
     0
 10
105387.0665832604
 20
-53497.908019412003
 30
0.0
 11
105387.0665832604
 21
-53593.908019411989
 31
0.0
  0
SOLID
  5
29F
  8
\U+6807\U+6CE8
 62
     0
 10
105385.0665832603
 20
-53497.908019412003
 30
0.0
 11
105389.0665832603
 21
-53497.908019412003
 31
0.0
 12
105387.0665832604
 22
-53485.908019412003
 32
0.0
 13
105387.0665832604
 23
-53485.908019412003
 33
0.0
  0
SOLID
  5
2A0
  8
\U+6807\U+6CE8
 62
     0
 10
105385.0665832603
 20
-53593.908019411989
 30
0.0
 11
105389.0665832603
 21
-53593.908019411989
 31
0.0
 12
105387.0665832604
 22
-53605.908019411982
 32
0.0
 13
105387.0665832604
 23
-53605.908019411982
 33
0.0
  0
INSERT
  5
2A1
  8
0
  2
*U145
 10
0.0
 20
0.0
 30
0.0
  0
POINT
  5
2A2
  8
DEFPOINTS
 62
     0
 10
105487.1341928547
 20
-53485.908019412003
 30
0.0
  0
POINT
  5
2A3
  8
DEFPOINTS
 62
     0
 10
105487.1341928547
 20
-53605.908019411982
 30
0.0
  0
POINT
  5
2A4
  8
DEFPOINTS
 62
     0
 10
105387.0665832604
 20
-53605.908019411982
 30
0.0
  0
ENDBLK
  5
2A5
  8
0
  0
BLOCK
  8
0
  2
*D16
 70
     1
 10
0.0
 20
0.0
 30
0.0
  3
*D16
  1

  0
LINE
  5
2A8
  8
\U+6807\U+6CE8
 62
     0
 10
105209.0841928547
 20
-53465.908019411982
 30
0.0
 11
105134.1120661337
 21
-53465.908019411982
 31
0.0
  0
LINE
  5
2A9
  8
\U+6807\U+6CE8
 62
     0
 10
105224.0841928547
 20
-53485.908019412003
 30
0.0
 11
105134.1120661337
 21
-53485.908019412003
 31
0.0
  0
LINE
  5
2AA
  8
\U+6807\U+6CE8
 62
     0
 10
105144.1120661337
 20
-53453.908019411967
 30
0.0
 11
105144.1120661337
 21
-53441.908019411982
 31
0.0
  0
LINE
  5
2AB
  8
\U+6807\U+6CE8
 62
     0
 10
105144.1120661337
 20
-53497.908019412003
 30
0.0
 11
105144.1120661337
 21
-53549.69849560249
 31
0.0
  0
LINE
  5
2AC
  8
\U+6807\U+6CE8
 62
     0
 10
105144.1120661337
 20
-53465.908019411982
 30
0.0
 11
105144.1120661337
 21
-53485.908019412003
 31
0.0
  0
SOLID
  5
2AD
  8
\U+6807\U+6CE8
 62
     0
 10
105142.1120661337
 20
-53453.908019411967
 30
0.0
 11
105146.11206613381
 21
-53453.908019411967
 31
0.0
 12
105144.1120661337
 22
-53465.908019411982
 32
0.0
 13
105144.1120661337
 23
-53465.908019411982
 33
0.0
  0
SOLID
  5
2AE
  8
\U+6807\U+6CE8
 62
     0
 10
105142.1120661337
 20
-53497.908019412003
 30
0.0
 11
105146.11206613381
 21
-53497.908019412003
 31
0.0
 12
105144.1120661337
 22
-53485.908019412003
 32
0.0
 13
105144.1120661337
 23
-53485.908019412003
 33
0.0
  0
INSERT
  5
2AF
  8
0
  2
*U146
 10
0.0
 20
0.0
 30
0.0
  0
POINT
  5
2B0
  8
DEFPOINTS
 62
     0
 10
105214.0841928547
 20
-53465.908019411982
 30
0.0
  0
POINT
  5
2B1
  8
DEFPOINTS
 62
     0
 10
105229.0841928547
 20
-53485.908019412003
 30
0.0
  0
POINT
  5
2B2
  8
DEFPOINTS
 62
     0
 10
105144.1120661337
 20
-53485.908019412003
 30
0.0
  0
ENDBLK
  5
2B3
  8
0
  0
BLOCK
  8
0
  2
*D17
 70
     1
 10
0.0
 20
0.0
 30
0.0
  3
*D17
  1

  0
LINE
  5
2B6
  8
\U+6807\U+6CE8
 62
     0
 10
105264.7425920661
 20
-53556.819226298452
 30
0.0
 11
105227.47103821571
 21
-53498.378645554709
 31
0.0
  0
INSERT
  5
2B7
  8
0
  2
*U147
 10
0.0
 20
0.0
 30
0.0
  0
SOLID
  5
2B8
  8
\U+6807\U+6CE8
 62
     0
 10
105229.157287454
 20
-53497.303209128702
 30
0.0
 11
105225.7847889775
 21
-53499.454081980737
 31
0.0
 12
105221.01841965959
 22
-53488.261150125058
 32
0.0
 13
105221.01841965959
 23
-53488.261150125058
 33
0.0
  0
POINT
  5
2B9
  8
DEFPOINTS
 62
     0
 10
105221.01841965959
 20
-53488.261150125058
 30
0.0
  0
POINT
  5
2BA
  8
DEFPOINTS
 62
     0
 10
105229.0841928547
 20
-53500.908019411989
 30
0.0
  0
ENDBLK
  5
2BB
  8
0
  0
BLOCK
  8
0
  2
*D18
 70
     1
 10
0.0
 20
0.0
 30
0.0
  3
*D18
  1

  0
LINE
  5
2BE
  8
\U+6807\U+6CE8
 62
     0
 10
105294.75591103551
 20
-54260.998473609412
 30
0.0
 11
105239.7979151442
 21
-54303.236950046208
 31
0.0
  0
INSERT
  5
2BF
  8
0
  2
*U148
 10
0.0
 20
0.0
 30
0.0
  0
SOLID
  5
2C0
  8
\U+6807\U+6CE8
 62
     0
 10
105238.5791627326
 20
-54301.651187592608
 30
0.0
 11
105241.0166675558
 21
-54304.822712499779
 31
0.0
 12
105230.2833404227
 22
-54310.549464515861
 32
0.0
 13
105230.2833404227
 23
-54310.549464515861
 33
0.0
  0
POINT
  5
2C1
  8
DEFPOINTS
 62
     0
 10
105230.2833404227
 20
-54310.549464515861
 30
0.0
  0
POINT
  5
2C2
  8
DEFPOINTS
 62
     0
 10
105242.17655882471
 20
-54301.408821428682
 30
0.0
  0
ENDBLK
  5
2C3
  8
0
  0
BLOCK
  8
0
  2
*D19
 70
     1
 10
0.0
 20
0.0
 30
0.0
  3
*D19
  1

  0
LINE
  5
2C6
  8
\U+6807\U+6CE8
 62
     0
 10
105194.0841928547
 20
-53465.908019411982
 30
0.0
 11
105194.0841928547
 21
-53373.359118915061
 31
0.0
  0
LINE
  5
2C7
  8
\U+6807\U+6CE8
 62
     0
 10
105780.18419285469
 20
-53465.908019411982
 30
0.0
 11
105780.18419285469
 21
-53373.359118915061
 31
0.0
  0
LINE
  5
2C8
  8
\U+6807\U+6CE8
 62
     0
 10
105206.0841928547
 20
-53383.359118915061
 30
0.0
 11
105768.18419285469
 21
-53383.359118915061
 31
0.0
  0
SOLID
  5
2C9
  8
\U+6807\U+6CE8
 62
     0
 10
105206.0841928547
 20
-53381.359118915061
 30
0.0
 11
105206.0841928547
 21
-53385.359118915061
 31
0.0
 12
105194.0841928547
 22
-53383.359118915061
 32
0.0
 13
105194.0841928547
 23
-53383.359118915061
 33
0.0
  0
SOLID
  5
2CA
  8
\U+6807\U+6CE8
 62
     0
 10
105768.18419285469
 20
-53381.359118915061
 30
0.0
 11
105768.18419285469
 21
-53385.359118915061
 31
0.0
 12
105780.18419285469
 22
-53383.359118915061
 32
0.0
 13
105780.18419285469
 23
-53383.359118915061
 33
0.0
  0
INSERT
  5
2CB
  8
0
  2
*U149
 10
0.0
 20
0.0
 30
0.0
  0
POINT
  5
2CC
  8
DEFPOINTS
 62
     0
 10
105194.0841928547
 20
-53470.908019412003
 30
0.0
  0
POINT
  5
2CD
  8
DEFPOINTS
 62
     0
 10
105780.18419285469
 20
-53470.908019412003
 30
0.0
  0
POINT
  5
2CE
  8
DEFPOINTS
 62
     0
 10
105780.18419285469
 20
-53383.359118915061
 30
0.0
  0
ENDBLK
  5
2CF
  8
0
  0
BLOCK
  8
0
  2
*D20
 70
     1
 10
0.0
 20
0.0
 30
0.0
  3
*D20
  1

  0
LINE
  5
2D2
  8
\U+6807\U+6CE8
 62
     0
 10
105194.0841928547
 20
-53465.908019411982
 30
0.0
 11
105095.50868203701
 21
-53465.908019411982
 31
0.0
  0
LINE
  5
2D3
  8
\U+6807\U+6CE8
 62
     0
 10
105194.0841928547
 20
-53912.308019411983
 30
0.0
 11
105095.50868203701
 21
-53912.308019411983
 31
0.0
  0
LINE
  5
2D4
  8
\U+6807\U+6CE8
 62
     0
 10
105105.50868203701
 20
-53477.908019411989
 30
0.0
 11
105105.50868203701
 21
-53900.30801941199
 31
0.0
  0
SOLID
  5
2D5
  8
\U+6807\U+6CE8
 62
     0
 10
105103.50868203701
 20
-53477.908019411989
 30
0.0
 11
105107.50868203701
 21
-53477.908019411989
 31
0.0
 12
105105.50868203701
 22
-53465.908019411982
 32
0.0
 13
105105.50868203701
 23
-53465.908019411982
 33
0.0
  0
SOLID
  5
2D6
  8
\U+6807\U+6CE8
 62
     0
 10
105103.50868203701
 20
-53900.30801941199
 30
0.0
 11
105107.50868203701
 21
-53900.30801941199
 31
0.0
 12
105105.50868203701
 22
-53912.308019411983
 32
0.0
 13
105105.50868203701
 23
-53912.308019411983
 33
0.0
  0
INSERT
  5
2D7
  8
0
  2
*U150
 10
0.0
 20
0.0
 30
0.0
  0
POINT
  5
2D8
  8
DEFPOINTS
 62
     0
 10
105199.0841928547
 20
-53465.908019411982
 30
0.0
  0
POINT
  5
2D9
  8
DEFPOINTS
 62
     0
 10
105199.0841928547
 20
-53912.308019411983
 30
0.0
  0
POINT
  5
2DA
  8
DEFPOINTS
 62
     0
 10
105105.50868203701
 20
-53912.308019411983
 30
0.0
  0
ENDBLK
  5
2DB
  8
0
  0
BLOCK
  8
0
  2
*D21
 70
     1
 10
0.0
 20
0.0
 30
0.0
  3
*D21
  1

  0
LINE
  5
2DE
  8
\U+6807\U+6CE8
 62
     0
 10
108963.6974219597
 20
-53257.459519043812
 30
0.0
 11
109141.49674860611
 21
-53257.459519043812
 31
0.0
  0
LINE
  5
2DF
  8
\U+6807\U+6CE8
 62
     0
 10
109047.52562033771
 20
-53327.459519043812
 30
0.0
 11
109141.49674860611
 21
-53327.459519043812
 31
0.0
  0
LINE
  5
2E0
  8
\U+6807\U+6CE8
 62
     0
 10
109131.49674860611
 20
-53315.459519043812
 30
0.0
 11
109131.49674860611
 21
-53269.459519043812
 31
0.0
  0
LINE
  5
2E1
  8
\U+6807\U+6CE8
 62
     0
 10
109131.49674860611
 20
-53257.459519043812
 30
0.0
 11
109131.49674860611
 21
-53180.305280147033
 31
0.0
  0
SOLID
  5
2E2
  8
\U+6807\U+6CE8
 62
     0
 10
109129.49674860611
 20
-53315.459519043812
 30
0.0
 11
109133.49674860611
 21
-53315.459519043812
 31
0.0
 12
109131.49674860611
 22
-53327.459519043812
 32
0.0
 13
109131.49674860611
 23
-53327.459519043812
 33
0.0
  0
SOLID
  5
2E3
  8
\U+6807\U+6CE8
 62
     0
 10
109129.49674860611
 20
-53269.459519043812
 30
0.0
 11
109133.49674860611
 21
-53269.459519043812
 31
0.0
 12
109131.49674860611
 22
-53257.459519043812
 32
0.0
 13
109131.49674860611
 23
-53257.459519043812
 33
0.0
  0
INSERT
  5
2E4
  8
0
  2
*U151
 10
0.0
 20
0.0
 30
0.0
  0
POINT
  5
2E5
  8
DEFPOINTS
 62
     0
 10
108958.69742195981
 20
-53257.459519043812
 30
0.0
  0
POINT
  5
2E6
  8
DEFPOINTS
 62
     0
 10
109042.52562033771
 20
-53327.459519043812
 30
0.0
  0
POINT
  5
2E7
  8
DEFPOINTS
 62
     0
 10
109131.49674860611
 20
-53327.459519043812
 30
0.0
  0
ENDBLK
  5
2E8
  8
0
  0
BLOCK
  8
0
  2
*D22
 70
     1
 10
0.0
 20
0.0
 30
0.0
  3
*D22
  1

  0
LINE
  5
2EB
  8
\U+6807\U+6CE8
 62
     0
 10
108560.2239544141
 20
-53517.409519043809
 30
0.0
 11
108560.2239544141
 21
-53569.430822001203
 31
0.0
  0
LINE
  5
2EC
  8
\U+6807\U+6CE8
 62
     0
 10
108580.2239544141
 20
-53576.900448669789
 30
0.0
 11
108580.2239544141
 21
-53549.430822001203
 31
0.0
  0
LINE
  5
2ED
  8
\U+6807\U+6CE8
 62
     0
 10
108548.2239544141
 20
-53559.430822001203
 30
0.0
 11
108536.223954414
 21
-53559.430822001203
 31
0.0
  0
LINE
  5
2EE
  8
\U+6807\U+6CE8
 62
     0
 10
108592.2239544141
 20
-53559.430822001203
 30
0.0
 11
108644.0144306045
 21
-53559.430822001203
 31
0.0
  0
LINE
  5
2EF
  8
\U+6807\U+6CE8
 62
     0
 10
108560.2239544141
 20
-53559.430822001203
 30
0.0
 11
108580.2239544141
 21
-53559.430822001203
 31
0.0
  0
SOLID
  5
2F0
  8
\U+6807\U+6CE8
 62
     0
 10
108548.2239544141
 20
-53557.430822001203
 30
0.0
 11
108548.2239544141
 21
-53561.430822001203
 31
0.0
 12
108560.2239544141
 22
-53559.430822001203
 32
0.0
 13
108560.2239544141
 23
-53559.430822001203
 33
0.0
  0
SOLID
  5
2F1
  8
\U+6807\U+6CE8
 62
     0
 10
108592.2239544141
 20
-53557.430822001203
 30
0.0
 11
108592.2239544141
 21
-53561.430822001203
 31
0.0
 12
108580.2239544141
 22
-53559.430822001203
 32
0.0
 13
108580.2239544141
 23
-53559.430822001203
 33
0.0
  0
INSERT
  5
2F2
  8
0
  2
*U152
 10
0.0
 20
0.0
 30
0.0
  0
POINT
  5
2F3
  8
DEFPOINTS
 62
     0
 10
108560.2239544141
 20
-53512.409519043802
 30
0.0
  0
POINT
  5
2F4
  8
DEFPOINTS
 62
     0
 10
108580.2239544141
 20
-53581.900448669789
 30
0.0
  0
POINT
  5
2F5
  8
DEFPOINTS
 62
     0
 10
108580.2239544141
 20
-53559.430822001203
 30
0.0
  0
ENDBLK
  5
2F6
  8
0
  0
BLOCK
  8
0
  2
*D23
 70
     1
 10
0.0
 20
0.0
 30
0.0
  3
*D23
  1

  0
LINE
  5
2F9
  8
\U+6807\U+6CE8
 62
     0
 10
109180.2239544141
 20
-53327.459519043812
 30
0.0
 11
109091.55544693999
 21
-53327.459519043812
 31
0.0
  0
LINE
  5
2FA
  8
\U+6807\U+6CE8
 62
     0
 10
109180.2239544141
 20
-53347.459519043812
 30
0.0
 11
109091.55544693999
 21
-53347.459519043812
 31
0.0
  0
LINE
  5
2FB
  8
\U+6807\U+6CE8
 62
     0
 10
109101.55544693999
 20
-53315.459519043812
 30
0.0
 11
109101.55544693999
 21
-53303.459519043812
 31
0.0
  0
LINE
  5
2FC
  8
\U+6807\U+6CE8
 62
     0
 10
109101.55544693999
 20
-53359.459519043812
 30
0.0
 11
109101.55544693999
 21
-53411.249995234277
 31
0.0
  0
LINE
  5
2FD
  8
\U+6807\U+6CE8
 62
     0
 10
109101.55544693999
 20
-53327.459519043812
 30
0.0
 11
109101.55544693999
 21
-53347.459519043812
 31
0.0
  0
SOLID
  5
2FE
  8
\U+6807\U+6CE8
 62
     0
 10
109099.55544693999
 20
-53315.459519043812
 30
0.0
 11
109103.55544693999
 21
-53315.459519043812
 31
0.0
 12
109101.55544693999
 22
-53327.459519043812
 32
0.0
 13
109101.55544693999
 23
-53327.459519043812
 33
0.0
  0
SOLID
  5
2FF
  8
\U+6807\U+6CE8
 62
     0
 10
109099.55544693999
 20
-53359.459519043812
 30
0.0
 11
109103.55544693999
 21
-53359.459519043812
 31
0.0
 12
109101.55544693999
 22
-53347.459519043812
 32
0.0
 13
109101.55544693999
 23
-53347.459519043812
 33
0.0
  0
INSERT
  5
300
  8
0
  2
*U153
 10
0.0
 20
0.0
 30
0.0
  0
POINT
  5
301
  8
DEFPOINTS
 62
     0
 10
109185.2239544141
 20
-53327.459519043812
 30
0.0
  0
POINT
  5
302
  8
DEFPOINTS
 62
     0
 10
109185.2239544141
 20
-53347.459519043812
 30
0.0
  0
POINT
  5
303
  8
DEFPOINTS
 62
     0
 10
109101.55544693999
 20
-53347.459519043812
 30
0.0
  0
ENDBLK
  5
304
  8
0
  0
BLOCK
  8
0
  2
*D24
 70
     1
 10
0.0
 20
0.0
 30
0.0
  3
*D24
  1

  0
LINE
  5
307
  8
\U+6807\U+6CE8
 62
     0
 10
108780.2239544141
 20
-53257.459519043812
 30
0.0
 11
108899.1351564433
 21
-53257.459519043812
 31
0.0
  0
LINE
  5
308
  8
\U+6807\U+6CE8
 62
     0
 10
108785.2239544141
 20
-53277.459519043812
 30
0.0
 11
108899.1351564433
 21
-53277.459519043812
 31
0.0
  0
LINE
  5
309
  8
\U+6807\U+6CE8
 62
     0
 10
108889.1351564433
 20
-53245.459519043812
 30
0.0
 11
108889.1351564433
 21
-53233.459519043812
 31
0.0
  0
LINE
  5
30A
  8
\U+6807\U+6CE8
 62
     0
 10
108889.1351564433
 20
-53289.459519043812
 30
0.0
 11
108889.1351564433
 21
-53341.249995234262
 31
0.0
  0
LINE
  5
30B
  8
\U+6807\U+6CE8
 62
     0
 10
108889.1351564433
 20
-53257.459519043812
 30
0.0
 11
108889.1351564433
 21
-53277.459519043812
 31
0.0
  0
SOLID
  5
30C
  8
\U+6807\U+6CE8
 62
     0
 10
108887.1351564433
 20
-53245.459519043812
 30
0.0
 11
108891.1351564433
 21
-53245.459519043812
 31
0.0
 12
108889.1351564433
 22
-53257.459519043812
 32
0.0
 13
108889.1351564433
 23
-53257.459519043812
 33
0.0
  0
SOLID
  5
30D
  8
\U+6807\U+6CE8
 62
     0
 10
108887.1351564433
 20
-53289.459519043812
 30
0.0
 11
108891.1351564433
 21
-53289.459519043812
 31
0.0
 12
108889.1351564433
 22
-53277.459519043812
 32
0.0
 13
108889.1351564433
 23
-53277.459519043812
 33
0.0
  0
INSERT
  5
30E
  8
0
  2
*U154
 10
0.0
 20
0.0
 30
0.0
  0
POINT
  5
30F
  8
DEFPOINTS
 62
     0
 10
108775.2239544141
 20
-53257.459519043812
 30
0.0
  0
POINT
  5
310
  8
DEFPOINTS
 62
     0
 10
108780.2239544141
 20
-53277.459519043812
 30
0.0
  0
POINT
  5
311
  8
DEFPOINTS
 62
     0
 10
108889.1351564433
 20
-53277.459519043812
 30
0.0
  0
ENDBLK
  5
312
  8
0
  0
BLOCK
  8
0
  2
*D25
 70
     1
 10
0.0
 20
0.0
 30
0.0
  3
*D25
  1

  0
LINE
  5
315
  8
\U+6807\U+6CE8
 62
     0
 10
108566.1739544141
 20
-54056.980240339901
 30
0.0
 11
108507.1378494447
 21
-54056.980240339901
 31
0.0
  0
LINE
  5
316
  8
\U+6807\U+6CE8
 62
     0
 10
108603.3163203841
 20
-54285.580240339899
 30
0.0
 11
108507.1378494447
 21
-54285.580240339899
 31
0.0
  0
LINE
  5
317
  8
\U+6807\U+6CE8
 62
     0
 10
108517.1378494447
 20
-54068.980240339901
 30
0.0
 11
108517.1378494447
 21
-54273.580240339877
 31
0.0
  0
SOLID
  5
318
  8
\U+6807\U+6CE8
 62
     0
 10
108515.1378494447
 20
-54068.980240339901
 30
0.0
 11
108519.1378494447
 21
-54068.980240339901
 31
0.0
 12
108517.1378494447
 22
-54056.980240339901
 32
0.0
 13
108517.1378494447
 23
-54056.980240339901
 33
0.0
  0
SOLID
  5
319
  8
\U+6807\U+6CE8
 62
     0
 10
108515.1378494447
 20
-54273.580240339877
 30
0.0
 11
108519.1378494447
 21
-54273.580240339877
 31
0.0
 12
108517.1378494447
 22
-54285.580240339899
 32
0.0
 13
108517.1378494447
 23
-54285.580240339899
 33
0.0
  0
INSERT
  5
31A
  8
0
  2
*U155
 10
0.0
 20
0.0
 30
0.0
  0
POINT
  5
31B
  8
DEFPOINTS
 62
     0
 10
108571.1739544141
 20
-54056.980240339901
 30
0.0
  0
POINT
  5
31C
  8
DEFPOINTS
 62
     0
 10
108608.3163203841
 20
-54285.580240339899
 30
0.0
  0
POINT
  5
31D
  8
DEFPOINTS
 62
     0
 10
108517.1378494447
 20
-54285.580240339899
 30
0.0
  0
ENDBLK
  5
31E
  8
0
  0
BLOCK
  8
0
  2
*D26
 70
     1
 10
0.0
 20
0.0
 30
0.0
  3
*D26
  1

  0
LINE
  5
321
  8
\U+6807\U+6CE8
 62
     0
 10
108580.2239544141
 20
-53737.459519043812
 30
0.0
 11
108580.2239544141
 21
-53821.86291939512
 31
0.0
  0
LINE
  5
322
  8
\U+6807\U+6CE8
 62
     0
 10
108980.2239544141
 20
-53737.459519043812
 30
0.0
 11
108980.2239544141
 21
-53821.86291939512
 31
0.0
  0
LINE
  5
323
  8
\U+6807\U+6CE8
 62
     0
 10
108592.2239544141
 20
-53811.86291939512
 30
0.0
 11
108968.223954414
 21
-53811.86291939512
 31
0.0
  0
SOLID
  5
324
  8
\U+6807\U+6CE8
 62
     0
 10
108592.2239544141
 20
-53809.86291939512
 30
0.0
 11
108592.2239544141
 21
-53813.86291939512
 31
0.0
 12
108580.2239544141
 22
-53811.86291939512
 32
0.0
 13
108580.2239544141
 23
-53811.86291939512
 33
0.0
  0
SOLID
  5
325
  8
\U+6807\U+6CE8
 62
     0
 10
108968.223954414
 20
-53809.86291939512
 30
0.0
 11
108968.223954414
 21
-53813.86291939512
 31
0.0
 12
108980.2239544141
 22
-53811.86291939512
 32
0.0
 13
108980.2239544141
 23
-53811.86291939512
 33
0.0
  0
INSERT
  5
326
  8
0
  2
*U156
 10
0.0
 20
0.0
 30
0.0
  0
POINT
  5
327
  8
DEFPOINTS
 62
     0
 10
108580.2239544141
 20
-53732.459519043812
 30
0.0
  0
POINT
  5
328
  8
DEFPOINTS
 62
     0
 10
108980.2239544141
 20
-53732.459519043812
 30
0.0
  0
POINT
  5
329
  8
DEFPOINTS
 62
     0
 10
108980.2239544141
 20
-53811.86291939512
 30
0.0
  0
ENDBLK
  5
32A
  8
0
  0
BLOCK
  8
0
  2
*D27
 70
     1
 10
0.0
 20
0.0
 30
0.0
  3
*D27
  1

  0
LINE
  5
32D
  8
\U+6807\U+6CE8
 62
     0
 10
109005.223954414
 20
-53737.459519043812
 30
0.0
 11
109005.223954414
 21
-53821.86291939512
 31
0.0
  0
LINE
  5
32E
  8
\U+6807\U+6CE8
 62
     0
 10
109335.2239544141
 20
-53737.459519043812
 30
0.0
 11
109335.2239544141
 21
-53821.86291939512
 31
0.0
  0
LINE
  5
32F
  8
\U+6807\U+6CE8
 62
     0
 10
109017.2239544141
 20
-53811.86291939512
 30
0.0
 11
109323.2239544141
 21
-53811.86291939512
 31
0.0
  0
SOLID
  5
330
  8
\U+6807\U+6CE8
 62
     0
 10
109017.2239544141
 20
-53809.86291939512
 30
0.0
 11
109017.2239544141
 21
-53813.86291939512
 31
0.0
 12
109005.223954414
 22
-53811.86291939512
 32
0.0
 13
109005.223954414
 23
-53811.86291939512
 33
0.0
  0
SOLID
  5
331
  8
\U+6807\U+6CE8
 62
     0
 10
109323.2239544141
 20
-53809.86291939512
 30
0.0
 11
109323.2239544141
 21
-53813.86291939512
 31
0.0
 12
109335.2239544141
 22
-53811.86291939512
 32
0.0
 13
109335.2239544141
 23
-53811.86291939512
 33
0.0
  0
INSERT
  5
332
  8
0
  2
*U157
 10
0.0
 20
0.0
 30
0.0
  0
POINT
  5
333
  8
DEFPOINTS
 62
     0
 10
109005.223954414
 20
-53732.459519043812
 30
0.0
  0
POINT
  5
334
  8
DEFPOINTS
 62
     0
 10
109335.2239544141
 20
-53732.459519043812
 30
0.0
  0
POINT
  5
335
  8
DEFPOINTS
 62
     0
 10
109335.2239544141
 20
-53811.86291939512
 30
0.0
  0
ENDBLK
  5
336
  8
0
  0
BLOCK
  8
0
  2
*D28
 70
     1
 10
0.0
 20
0.0
 30
0.0
  3
*D28
  1

  0
LINE
  5
339
  8
\U+6807\U+6CE8
 62
     0
 10
108590.2239544141
 20
-53277.459519043812
 30
0.0
 11
108519.326772888
 21
-53277.459519043812
 31
0.0
  0
LINE
  5
33A
  8
\U+6807\U+6CE8
 62
     0
 10
108590.2239544141
 20
-53747.459519043812
 30
0.0
 11
108519.326772888
 21
-53747.459519043812
 31
0.0
  0
LINE
  5
33B
  8
\U+6807\U+6CE8
 62
     0
 10
108529.326772888
 20
-53289.459519043812
 30
0.0
 11
108529.326772888
 21
-53735.459519043812
 31
0.0
  0
SOLID
  5
33C
  8
\U+6807\U+6CE8
 62
     0
 10
108527.326772888
 20
-53289.459519043812
 30
0.0
 11
108531.326772888
 21
-53289.459519043812
 31
0.0
 12
108529.326772888
 22
-53277.459519043812
 32
0.0
 13
108529.326772888
 23
-53277.459519043812
 33
0.0
  0
SOLID
  5
33D
  8
\U+6807\U+6CE8
 62
     0
 10
108527.326772888
 20
-53735.459519043812
 30
0.0
 11
108531.326772888
 21
-53735.459519043812
 31
0.0
 12
108529.326772888
 22
-53747.459519043812
 32
0.0
 13
108529.326772888
 23
-53747.459519043812
 33
0.0
  0
INSERT
  5
33E
  8
0
  2
*U158
 10
0.0
 20
0.0
 30
0.0
  0
POINT
  5
33F
  8
DEFPOINTS
 62
     0
 10
108595.223954414
 20
-53277.459519043812
 30
0.0
  0
POINT
  5
340
  8
DEFPOINTS
 62
     0
 10
108595.223954414
 20
-53747.459519043812
 30
0.0
  0
POINT
  5
341
  8
DEFPOINTS
 62
     0
 10
108529.326772888
 20
-53747.459519043812
 30
0.0
  0
ENDBLK
  5
342
  8
0
  0
BLOCK
  8
0
  2
*D29
 70
     1
 10
0.0
 20
0.0
 30
0.0
  3
*D29
  1

  0
LINE
  5
345
  8
\U+6807\U+6CE8
 62
     0
 10
109325.2239544141
 20
-53347.459519043812
 30
0.0
 11
109414.9629515182
 21
-53347.459519043812
 31
0.0
  0
LINE
  5
346
  8
\U+6807\U+6CE8
 62
     0
 10
109325.2239544141
 20
-53747.459519043812
 30
0.0
 11
109414.9629515182
 21
-53747.459519043812
 31
0.0
  0
LINE
  5
347
  8
\U+6807\U+6CE8
 62
     0
 10
109404.9629515183
 20
-53359.459519043812
 30
0.0
 11
109404.9629515183
 21
-53735.459519043812
 31
0.0
  0
SOLID
  5
348
  8
\U+6807\U+6CE8
 62
     0
 10
109402.9629515183
 20
-53359.459519043812
 30
0.0
 11
109406.9629515183
 21
-53359.459519043812
 31
0.0
 12
109404.9629515183
 22
-53347.459519043812
 32
0.0
 13
109404.9629515183
 23
-53347.459519043812
 33
0.0
  0
SOLID
  5
349
  8
\U+6807\U+6CE8
 62
     0
 10
109402.9629515183
 20
-53735.459519043812
 30
0.0
 11
109406.9629515183
 21
-53735.459519043812
 31
0.0
 12
109404.9629515183
 22
-53747.459519043812
 32
0.0
 13
109404.9629515183
 23
-53747.459519043812
 33
0.0
  0
INSERT
  5
34A
  8
0
  2
*U159
 10
0.0
 20
0.0
 30
0.0
  0
POINT
  5
34B
  8
DEFPOINTS
 62
     0
 10
109320.223954414
 20
-53347.459519043812
 30
0.0
  0
POINT
  5
34C
  8
DEFPOINTS
 62
     0
 10
109320.223954414
 20
-53747.459519043812
 30
0.0
  0
POINT
  5
34D
  8
DEFPOINTS
 62
     0
 10
109404.9629515183
 20
-53747.459519043812
 30
0.0
  0
ENDBLK
  5
34E
  8
0
  0
BLOCK
  8
0
  2
*D30
 70
     1
 10
0.0
 20
0.0
 30
0.0
  3
*D30
  1

  0
LINE
  5
351
  8
\U+6807\U+6CE8
 62
     0
 10
109354.6739544141
 20
-54056.980240339901
 30
0.0
 11
109396.3741777432
 21
-54056.980240339901
 31
0.0
  0
LINE
  5
352
  8
\U+6807\U+6CE8
 62
     0
 10
109315.2386495477
 20
-54234.780240339911
 30
0.0
 11
109396.3741777432
 21
-54234.780240339911
 31
0.0
  0
LINE
  5
353
  8
\U+6807\U+6CE8
 62
     0
 10
109386.3741777432
 20
-54068.980240339901
 30
0.0
 11
109386.3741777432
 21
-54222.780240339911
 31
0.0
  0
SOLID
  5
354
  8
\U+6807\U+6CE8
 62
     0
 10
109384.3741777432
 20
-54068.980240339901
 30
0.0
 11
109388.3741777432
 21
-54068.980240339901
 31
0.0
 12
109386.3741777432
 22
-54056.980240339901
 32
0.0
 13
109386.3741777432
 23
-54056.980240339901
 33
0.0
  0
SOLID
  5
355
  8
\U+6807\U+6CE8
 62
     0
 10
109384.3741777432
 20
-54222.780240339911
 30
0.0
 11
109388.3741777432
 21
-54222.780240339911
 31
0.0
 12
109386.3741777432
 22
-54234.780240339911
 32
0.0
 13
109386.3741777432
 23
-54234.780240339911
 33
0.0
  0
INSERT
  5
356
  8
0
  2
*U160
 10
0.0
 20
0.0
 30
0.0
  0
POINT
  5
357
  8
DEFPOINTS
 62
     0
 10
109349.6739544141
 20
-54056.980240339901
 30
0.0
  0
POINT
  5
358
  8
DEFPOINTS
 62
     0
 10
109310.2386495477
 20
-54234.780240339911
 30
0.0
  0
POINT
  5
359
  8
DEFPOINTS
 62
     0
 10
109386.3741777432
 20
-54234.780240339911
 30
0.0
  0
ENDBLK
  5
35A
  8
0
  0
BLOCK
  8
0
  2
*D31
 70
     1
 10
0.0
 20
0.0
 30
0.0
  3
*D31
  1

  0
LINE
  5
35D
  8
\U+6807\U+6CE8
 62
     0
 10
108980.2239544141
 20
-53507.459519043812
 30
0.0
 11
108980.2239544141
 21
-53502.459519043812
 31
0.0
  0
LINE
  5
35E
  8
\U+6807\U+6CE8
 62
     0
 10
109005.223954414
 20
-53507.459519043812
 30
0.0
 11
109005.223954414
 21
-53502.459519043812
 31
0.0
  0
LINE
  5
35F
  8
\U+6807\U+6CE8
 62
     0
 10
108968.223954414
 20
-53512.459519043812
 30
0.0
 11
108956.2239544141
 21
-53512.459519043812
 31
0.0
  0
LINE
  5
360
  8
\U+6807\U+6CE8
 62
     0
 10
109017.2239544141
 20
-53512.459519043812
 30
0.0
 11
109069.0144306045
 21
-53512.459519043812
 31
0.0
  0
LINE
  5
361
  8
\U+6807\U+6CE8
 62
     0
 10
108980.2239544141
 20
-53512.459519043812
 30
0.0
 11
109005.223954414
 21
-53512.459519043812
 31
0.0
  0
SOLID
  5
362
  8
\U+6807\U+6CE8
 62
     0
 10
108968.223954414
 20
-53510.459519043812
 30
0.0
 11
108968.223954414
 21
-53514.459519043812
 31
0.0
 12
108980.2239544141
 22
-53512.459519043812
 32
0.0
 13
108980.2239544141
 23
-53512.459519043812
 33
0.0
  0
SOLID
  5
363
  8
\U+6807\U+6CE8
 62
     0
 10
109017.2239544141
 20
-53510.459519043812
 30
0.0
 11
109017.2239544141
 21
-53514.459519043812
 31
0.0
 12
109005.223954414
 22
-53512.459519043812
 32
0.0
 13
109005.223954414
 23
-53512.459519043812
 33
0.0
  0
INSERT
  5
364
  8
0
  2
*U161
 10
0.0
 20
0.0
 30
0.0
  0
POINT
  5
365
  8
DEFPOINTS
 62
     0
 10
108980.2239544141
 20
-53512.459519043812
 30
0.0
  0
POINT
  5
366
  8
DEFPOINTS
 62
     0
 10
109005.223954414
 20
-53512.459519043812
 30
0.0
  0
POINT
  5
367
  8
DEFPOINTS
 62
     0
 10
109005.223954414
 20
-53512.459519043812
 30
0.0
  0
ENDBLK
  5
368
  8
0
  0
BLOCK
  8
0
  2
*D32
 70
     1
 10
0.0
 20
0.0
 30
0.0
  3
*D32
  1

  0
LINE
  5
36B
  8
\U+6807\U+6CE8
 62
     0
 10
108775.2239544141
 20
-53277.459519043812
 30
0.0
 11
108686.6146932112
 21
-53277.459519043812
 31
0.0
  0
LINE
  5
36C
  8
\U+6807\U+6CE8
 62
     0
 10
108775.2239544141
 20
-53397.459519043812
 30
0.0
 11
108686.6146932112
 21
-53397.459519043812
 31
0.0
  0
LINE
  5
36D
  8
\U+6807\U+6CE8
 62
     0
 10
108696.6146932112
 20
-53289.459519043812
 30
0.0
 11
108696.6146932112
 21
-53385.459519043812
 31
0.0
  0
SOLID
  5
36E
  8
\U+6807\U+6CE8
 62
     0
 10
108694.6146932112
 20
-53289.459519043812
 30
0.0
 11
108698.6146932112
 21
-53289.459519043812
 31
0.0
 12
108696.6146932112
 22
-53277.459519043812
 32
0.0
 13
108696.6146932112
 23
-53277.459519043812
 33
0.0
  0
SOLID
  5
36F
  8
\U+6807\U+6CE8
 62
     0
 10
108694.6146932112
 20
-53385.459519043812
 30
0.0
 11
108698.6146932112
 21
-53385.459519043812
 31
0.0
 12
108696.6146932112
 22
-53397.459519043812
 32
0.0
 13
108696.6146932112
 23
-53397.459519043812
 33
0.0
  0
INSERT
  5
370
  8
0
  2
*U162
 10
0.0
 20
0.0
 30
0.0
  0
POINT
  5
371
  8
DEFPOINTS
 62
     0
 10
108780.223954414
 20
-53277.459519043812
 30
0.0
  0
POINT
  5
372
  8
DEFPOINTS
 62
     0
 10
108780.223954414
 20
-53397.459519043812
 30
0.0
  0
POINT
  5
373
  8
DEFPOINTS
 62
     0
 10
108696.6146932112
 20
-53397.459519043812
 30
0.0
  0
ENDBLK
  5
374
  8
0
  0
BLOCK
  8
0
  2
*D33
 70
     1
 10
0.0
 20
0.0
 30
0.0
  3
*D33
  1

  0
LINE
  5
377
  8
\U+6807\U+6CE8
 62
     0
 10
109175.2239544141
 20
-53347.459519043812
 30
0.0
 11
109283.80062670889
 21
-53347.459519043812
 31
0.0
  0
LINE
  5
378
  8
\U+6807\U+6CE8
 62
     0
 10
109175.2239544141
 20
-53467.459519043812
 30
0.0
 11
109283.80062670889
 21
-53467.459519043812
 31
0.0
  0
LINE
  5
379
  8
\U+6807\U+6CE8
 62
     0
 10
109273.80062670889
 20
-53359.459519043812
 30
0.0
 11
109273.80062670889
 21
-53455.459519043812
 31
0.0
  0
SOLID
  5
37A
  8
\U+6807\U+6CE8
 62
     0
 10
109271.80062670889
 20
-53359.459519043812
 30
0.0
 11
109275.80062670889
 21
-53359.459519043812
 31
0.0
 12
109273.80062670889
 22
-53347.459519043812
 32
0.0
 13
109273.80062670889
 23
-53347.459519043812
 33
0.0
  0
SOLID
  5
37B
  8
\U+6807\U+6CE8
 62
     0
 10
109271.80062670889
 20
-53455.459519043812
 30
0.0
 11
109275.80062670889
 21
-53455.459519043812
 31
0.0
 12
109273.80062670889
 22
-53467.459519043812
 32
0.0
 13
109273.80062670889
 23
-53467.459519043812
 33
0.0
  0
INSERT
  5
37C
  8
0
  2
*U163
 10
0.0
 20
0.0
 30
0.0
  0
POINT
  5
37D
  8
DEFPOINTS
 62
     0
 10
109170.2239544141
 20
-53347.459519043812
 30
0.0
  0
POINT
  5
37E
  8
DEFPOINTS
 62
     0
 10
109170.2239544141
 20
-53467.459519043812
 30
0.0
  0
POINT
  5
37F
  8
DEFPOINTS
 62
     0
 10
109273.80062670889
 20
-53467.459519043812
 30
0.0
  0
ENDBLK
  5
380
  8
0
  0
BLOCK
  8
0
  2
*D34
 70
     1
 10
0.0
 20
0.0
 30
0.0
  3
*D34
  1

  0
LINE
  5
383
  8
\U+6807\U+6CE8
 62
     0
 10
108642.68209644769
 20
-53338.777002184812
 30
0.0
 11
108593.07698978089
 21
-53290.364156816358
 31
0.0
  0
INSERT
  5
384
  8
0
  2
*U164
 10
0.0
 20
0.0
 30
0.0
  0
SOLID
  5
385
  8
\U+6807\U+6CE8
 62
     0
 10
108594.4738979325
 20
-53288.932847060947
 30
0.0
 11
108591.6800816293
 21
-53291.795466571813
 31
0.0
 12
108584.48913124829
 22
-53281.982707906769
 32
0.0
 13
108584.48913124829
 23
-53281.982707906769
 33
0.0
  0
POINT
  5
386
  8
DEFPOINTS
 62
     0
 10
108584.48913124829
 20
-53281.982707906769
 30
0.0
  0
POINT
  5
387
  8
DEFPOINTS
 62
     0
 10
108595.2239544141
 20
-53292.459519043798
 30
0.0
  0
ENDBLK
  5
388
  8
0
  0
BLOCK
  8
0
  2
*D35
 70
     1
 10
0.0
 20
0.0
 30
0.0
  3
*D35
  1

  0
LINE
  5
38B
  8
\U+6807\U+6CE8
 62
     0
 10
109355.2239544141
 20
-53549.309519043811
 30
0.0
 11
109355.2239544141
 21
-53633.746681485078
 31
0.0
  0
LINE
  5
38C
  8
\U+6807\U+6CE8
 62
     0
 10
109335.2239544141
 20
-53552.459519043812
 30
0.0
 11
109335.2239544141
 21
-53633.746681485078
 31
0.0
  0
LINE
  5
38D
  8
\U+6807\U+6CE8
 62
     0
 10
109367.223954414
 20
-53623.746681485078
 30
0.0
 11
109379.2239544141
 21
-53623.746681485078
 31
0.0
  0
LINE
  5
38E
  8
\U+6807\U+6CE8
 62
     0
 10
109323.2239544141
 20
-53623.746681485078
 30
0.0
 11
109271.4334782236
 21
-53623.746681485078
 31
0.0
  0
LINE
  5
38F
  8
\U+6807\U+6CE8
 62
     0
 10
109355.2239544141
 20
-53623.746681485078
 30
0.0
 11
109335.2239544141
 21
-53623.746681485078
 31
0.0
  0
SOLID
  5
390
  8
\U+6807\U+6CE8
 62
     0
 10
109367.223954414
 20
-53621.74668148507
 30
0.0
 11
109367.223954414
 21
-53625.746681485078
 31
0.0
 12
109355.2239544141
 22
-53623.746681485078
 32
0.0
 13
109355.2239544141
 23
-53623.746681485078
 33
0.0
  0
SOLID
  5
391
  8
\U+6807\U+6CE8
 62
     0
 10
109323.2239544141
 20
-53621.74668148507
 30
0.0
 11
109323.2239544141
 21
-53625.746681485078
 31
0.0
 12
109335.2239544141
 22
-53623.746681485078
 32
0.0
 13
109335.2239544141
 23
-53623.746681485078
 33
0.0
  0
INSERT
  5
392
  8
0
  2
*U165
 10
0.0
 20
0.0
 30
0.0
  0
POINT
  5
393
  8
DEFPOINTS
 62
     0
 10
109355.2239544141
 20
-53544.309519043803
 30
0.0
  0
POINT
  5
394
  8
DEFPOINTS
 62
     0
 10
109335.2239544141
 20
-53547.459519043812
 30
0.0
  0
POINT
  5
395
  8
DEFPOINTS
 62
     0
 10
109335.2239544141
 20
-53623.746681485078
 30
0.0
  0
ENDBLK
  5
396
  8
0
  0
BLOCK
  8
0
  2
*D36
 70
     1
 10
0.0
 20
0.0
 30
0.0
  3
*D36
  1

  0
LINE
  5
399
  8
\U+6807\U+6CE8
 62
     0
 10
108655.1127765625
 20
-54223.59432565343
 30
0.0
 11
108606.1992898373
 21
-54272.705841822994
 31
0.0
  0
INSERT
  5
39A
  8
0
  2
*U166
 10
0.0
 20
0.0
 30
0.0
  0
SOLID
  5
39B
  8
\U+6807\U+6CE8
 62
     0
 10
108604.782222182
 20
-54271.294488125233
 30
0.0
 11
108607.6163574927
 21
-54274.117195520761
 31
0.0
 12
108597.7311676508
 22
-54281.208247755079
 32
0.0
 13
108597.7311676508
 23
-54281.208247755079
 33
0.0
  0
POINT
  5
39C
  8
DEFPOINTS
 62
     0
 10
108597.7311676508
 20
-54281.208247755079
 30
0.0
  0
POINT
  5
39D
  8
DEFPOINTS
 62
     0
 10
108608.3163203841
 20
-54270.580240339899
 30
0.0
  0
ENDBLK
  5
39E
  8
0
  0
BLOCK
  8
0
  2
*D37
 70
     1
 10
0.0
 20
0.0
 30
0.0
  3
*D37
  1

  0
LINE
  5
3A1
  8
\U+6807\U+6CE8
 62
     0
 10
108560.2239544141
 20
-53742.459519043827
 30
0.0
 11
108560.2239544141
 21
-53870.380752407538
 31
0.0
  0
LINE
  5
3A2
  8
\U+6807\U+6CE8
 62
     0
 10
109355.2239544141
 20
-53720.903267292619
 30
0.0
 11
109355.2239544141
 21
-53870.380752407538
 31
0.0
  0
LINE
  5
3A3
  8
\U+6807\U+6CE8
 62
     0
 10
108572.2239544141
 20
-53860.380752407553
 30
0.0
 11
109343.223954414
 21
-53860.380752407553
 31
0.0
  0
SOLID
  5
3A4
  8
\U+6807\U+6CE8
 62
     0
 10
108572.2239544141
 20
-53858.380752407531
 30
0.0
 11
108572.2239544141
 21
-53862.380752407531
 31
0.0
 12
108560.2239544141
 22
-53860.380752407553
 32
0.0
 13
108560.2239544141
 23
-53860.380752407553
 33
0.0
  0
SOLID
  5
3A5
  8
\U+6807\U+6CE8
 62
     0
 10
109343.223954414
 20
-53858.380752407531
 30
0.0
 11
109343.223954414
 21
-53862.380752407531
 31
0.0
 12
109355.2239544141
 22
-53860.380752407553
 32
0.0
 13
109355.2239544141
 23
-53860.380752407553
 33
0.0
  0
INSERT
  5
3A6
  8
0
  2
*U167
 10
0.0
 20
0.0
 30
0.0
  0
POINT
  5
3A7
  8
DEFPOINTS
 62
     0
 10
108560.2239544141
 20
-53737.459519043827
 30
0.0
  0
POINT
  5
3A8
  8
DEFPOINTS
 62
     0
 10
109355.2239544141
 20
-53715.903267292611
 30
0.0
  0
POINT
  5
3A9
  8
DEFPOINTS
 62
     0
 10
109355.2239544141
 20
-53860.380752407553
 30
0.0
  0
ENDBLK
  5
3AA
  8
0
  0
BLOCK
  8
0
  2
*D38
 70
     1
 10
0.0
 20
0.0
 30
0.0
  3
*D38
  1

  0
LINE
  5
3AD
  8
\U+6807\U+6CE8
 62
     0
 10
108585.2239544141
 20
-53257.459519043812
 30
0.0
 11
108452.6808767145
 21
-53257.459519043812
 31
0.0
  0
LINE
  5
3AE
  8
\U+6807\U+6CE8
 62
     0
 10
108585.2239544141
 20
-53767.459519043819
 30
0.0
 11
108452.6808767145
 21
-53767.459519043819
 31
0.0
  0
LINE
  5
3AF
  8
\U+6807\U+6CE8
 62
     0
 10
108462.6808767145
 20
-53269.459519043812
 30
0.0
 11
108462.6808767145
 21
-53755.459519043812
 31
0.0
  0
SOLID
  5
3B0
  8
\U+6807\U+6CE8
 62
     0
 10
108460.6808767145
 20
-53269.459519043812
 30
0.0
 11
108464.6808767145
 21
-53269.459519043812
 31
0.0
 12
108462.6808767145
 22
-53257.459519043812
 32
0.0
 13
108462.6808767145
 23
-53257.459519043812
 33
0.0
  0
SOLID
  5
3B1
  8
\U+6807\U+6CE8
 62
     0
 10
108460.6808767145
 20
-53755.459519043812
 30
0.0
 11
108464.6808767145
 21
-53755.459519043812
 31
0.0
 12
108462.6808767145
 22
-53767.459519043819
 32
0.0
 13
108462.6808767145
 23
-53767.459519043819
 33
0.0
  0
INSERT
  5
3B2
  8
0
  2
*U168
 10
0.0
 20
0.0
 30
0.0
  0
POINT
  5
3B3
  8
DEFPOINTS
 62
     0
 10
108590.2239544141
 20
-53257.459519043812
 30
0.0
  0
POINT
  5
3B4
  8
DEFPOINTS
 62
     0
 10
108590.2239544141
 20
-53767.459519043819
 30
0.0
  0
POINT
  5
3B5
  8
DEFPOINTS
 62
     0
 10
108462.6808767145
 20
-53767.459519043819
 30
0.0
  0
ENDBLK
  5
3B6
  8
0
  0
BLOCK
  8
0
  2
*D39
 70
     1
 10
0.0
 20
0.0
 30
0.0
  3
*D39
  1

  0
LINE
  5
3B9
  8
\U+6807\U+6CE8
 62
     0
 10
109330.2239544141
 20
-53327.459519043812
 30
0.0
 11
109480.2432475755
 21
-53327.459519043812
 31
0.0
  0
LINE
  5
3BA
  8
\U+6807\U+6CE8
 62
     0
 10
109330.2239544141
 20
-53767.459519043812
 30
0.0
 11
109480.2432475755
 21
-53767.459519043812
 31
0.0
  0
LINE
  5
3BB
  8
\U+6807\U+6CE8
 62
     0
 10
109470.2432475755
 20
-53339.459519043812
 30
0.0
 11
109470.2432475755
 21
-53755.459519043812
 31
0.0
  0
SOLID
  5
3BC
  8
\U+6807\U+6CE8
 62
     0
 10
109468.24324757561
 20
-53339.459519043812
 30
0.0
 11
109472.2432475755
 21
-53339.459519043812
 31
0.0
 12
109470.2432475755
 22
-53327.459519043812
 32
0.0
 13
109470.2432475755
 23
-53327.459519043812
 33
0.0
  0
SOLID
  5
3BD
  8
\U+6807\U+6CE8
 62
     0
 10
109468.24324757561
 20
-53755.459519043812
 30
0.0
 11
109472.2432475755
 21
-53755.459519043812
 31
0.0
 12
109470.2432475755
 22
-53767.459519043812
 32
0.0
 13
109470.2432475755
 23
-53767.459519043812
 33
0.0
  0
INSERT
  5
3BE
  8
0
  2
*U169
 10
0.0
 20
0.0
 30
0.0
  0
POINT
  5
3BF
  8
DEFPOINTS
 62
     0
 10
109325.2239544141
 20
-53327.459519043812
 30
0.0
  0
POINT
  5
3C0
  8
DEFPOINTS
 62
     0
 10
109325.2239544141
 20
-53767.459519043812
 30
0.0
  0
POINT
  5
3C1
  8
DEFPOINTS
 62
     0
 10
109470.2432475755
 20
-53767.459519043812
 30
0.0
  0
ENDBLK
  5
3C2
  8
0
  0
BLOCK
  8
0
  2
*D40
 70
     1
 10
0.0
 20
0.0
 30
0.0
  3
*D40
  1

  0
LINE
  5
3C5
  8
\U+6807\U+6CE8
 62
     0
 10
108962.7239544139
 20
-54056.980240339901
 30
0.0
 11
109083.2433586673
 21
-54056.980240339901
 31
0.0
  0
LINE
  5
3C6
  8
\U+6807\U+6CE8
 62
     0
 10
108997.7239544141
 20
-54121.980240339893
 30
0.0
 11
109083.2433586673
 21
-54121.980240339893
 31
0.0
  0
LINE
  5
3C7
  8
\U+6807\U+6CE8
 62
     0
 10
109073.2433586673
 20
-54068.980240339901
 30
0.0
 11
109073.2433586673
 21
-54109.980240339893
 31
0.0
  0
SOLID
  5
3C8
  8
\U+6807\U+6CE8
 62
     0
 10
109071.2433586673
 20
-54068.980240339901
 30
0.0
 11
109075.2433586672
 21
-54068.980240339901
 31
0.0
 12
109073.2433586673
 22
-54056.980240339901
 32
0.0
 13
109073.2433586673
 23
-54056.980240339901
 33
0.0
  0
SOLID
  5
3C9
  8
\U+6807\U+6CE8
 62
     0
 10
109071.2433586673
 20
-54109.980240339893
 30
0.0
 11
109075.2433586672
 21
-54109.980240339893
 31
0.0
 12
109073.2433586673
 22
-54121.980240339893
 32
0.0
 13
109073.2433586673
 23
-54121.980240339893
 33
0.0
  0
INSERT
  5
3CA
  8
0
  2
*U170
 10
0.0
 20
0.0
 30
0.0
  0
POINT
  5
3CB
  8
DEFPOINTS
 62
     0
 10
108957.7239544139
 20
-54056.980240339901
 30
0.0
  0
POINT
  5
3CC
  8
DEFPOINTS
 62
     0
 10
108992.7239544141
 20
-54121.980240339893
 30
0.0
  0
POINT
  5
3CD
  8
DEFPOINTS
 62
     0
 10
109073.2433586673
 20
-54121.980240339893
 30
0.0
  0
ENDBLK
  5
3CE
  8
0
  0
BLOCK
  8
0
  2
*D41
 70
     1
 10
0.0
 20
0.0
 30
0.0
  3
*D41
  1

  0
LINE
  5
3D1
  8
\U+6807\U+6CE8
 62
     0
 10
102664.22034077271
 20
-56877.234533547351
 30
0.0
 11
102664.22034077271
 21
-56681.422457333159
 31
0.0
  0
LINE
  5
3D2
  8
\U+6807\U+6CE8
 62
     0
 10
103310.22034077271
 20
-56864.870000607181
 30
0.0
 11
103310.22034077271
 21
-56681.422457333159
 31
0.0
  0
LINE
  5
3D3
  8
\U+6807\U+6CE8
 62
     0
 10
102679.22034077271
 20
-56693.922457333159
 30
0.0
 11
103295.22034077271
 21
-56693.922457333159
 31
0.0
  0
SOLID
  5
3D4
  8
\U+6807\U+6CE8
 62
     0
 10
102679.22034077271
 20
-56691.422457333181
 30
0.0
 11
102679.22034077271
 21
-56696.422457333159
 31
0.0
 12
102664.22034077271
 22
-56693.922457333159
 32
0.0
 13
102664.22034077271
 23
-56693.922457333159
 33
0.0
  0
SOLID
  5
3D5
  8
\U+6807\U+6CE8
 62
     0
 10
103295.22034077271
 20
-56691.422457333181
 30
0.0
 11
103295.22034077271
 21
-56696.422457333159
 31
0.0
 12
103310.22034077271
 22
-56693.922457333159
 32
0.0
 13
103310.22034077271
 23
-56693.922457333159
 33
0.0
  0
INSERT
  5
3D6
  8
0
  2
*U171
 10
0.0
 20
0.0
 30
0.0
  0
POINT
  5
3D7
  8
DEFPOINTS
 62
     0
 10
102664.22034077271
 20
-56883.484533547351
 30
0.0
  0
POINT
  5
3D8
  8
DEFPOINTS
 62
     0
 10
103310.22034077271
 20
-56871.120000607181
 30
0.0
  0
POINT
  5
3D9
  8
DEFPOINTS
 62
     0
 10
103310.22034077271
 20
-56693.922457333159
 30
0.0
  0
ENDBLK
  5
3DA
  8
0
  0
BLOCK
  8
0
  2
*D42
 70
     1
 10
0.0
 20
0.0
 30
0.0
  3
*D42
  1

  0
LINE
  5
3DD
  8
\U+6807\U+6CE8
 62
     0
 10
102634.22034077271
 20
-56777.187383111857
 30
0.0
 11
102597.0589024433
 21
-56777.187383111857
 31
0.0
  0
LINE
  5
3DE
  8
\U+6807\U+6CE8
 62
     0
 10
102634.22034077271
 20
-56853.387383111847
 30
0.0
 11
102597.0589024433
 21
-56853.387383111847
 31
0.0
  0
LINE
  5
3DF
  8
\U+6807\U+6CE8
 62
     0
 10
102607.0589024433
 20
-56789.187383111843
 30
0.0
 11
102607.0589024433
 21
-56841.387383111818
 31
0.0
  0
SOLID
  5
3E0
  8
\U+6807\U+6CE8
 62
     0
 10
102605.0589024433
 20
-56789.187383111843
 30
0.0
 11
102609.0589024433
 21
-56789.187383111843
 31
0.0
 12
102607.0589024433
 22
-56777.187383111857
 32
0.0
 13
102607.0589024433
 23
-56777.187383111857
 33
0.0
  0
SOLID
  5
3E1
  8
\U+6807\U+6CE8
 62
     0
 10
102605.0589024433
 20
-56841.387383111818
 30
0.0
 11
102609.0589024433
 21
-56841.387383111818
 31
0.0
 12
102607.0589024433
 22
-56853.387383111847
 32
0.0
 13
102607.0589024433
 23
-56853.387383111847
 33
0.0
  0
INSERT
  5
3E2
  8
0
  2
*U172
 10
0.0
 20
0.0
 30
0.0
  0
POINT
  5
3E3
  8
DEFPOINTS
 62
     0
 10
102639.22034077271
 20
-56777.187383111857
 30
0.0
  0
POINT
  5
3E4
  8
DEFPOINTS
 62
     0
 10
102639.22034077271
 20
-56853.387383111847
 30
0.0
  0
POINT
  5
3E5
  8
DEFPOINTS
 62
     0
 10
102607.0589024433
 20
-56853.387383111847
 30
0.0
  0
ENDBLK
  5
3E6
  8
0
  0
BLOCK
  8
0
  2
*D43
 70
     1
 10
0.0
 20
0.0
 30
0.0
  3
*D43
  1

  0
LINE
  5
3E9
  8
\U+6807\U+6CE8
 62
     0
 10
102630.639621608
 20
-57259.787383111863
 30
0.0
 11
102597.0589024433
 21
-57259.787383111863
 31
0.0
  0
LINE
  5
3EA
  8
\U+6807\U+6CE8
 62
     0
 10
102665.1703407727
 20
-57289.787383111863
 30
0.0
 11
102597.0589024433
 21
-57289.787383111863
 31
0.0
  0
LINE
  5
3EB
  8
\U+6807\U+6CE8
 62
     0
 10
102607.0589024433
 20
-57247.787383111863
 30
0.0
 11
102607.0589024433
 21
-57235.787383111863
 31
0.0
  0
LINE
  5
3EC
  8
\U+6807\U+6CE8
 62
     0
 10
102607.0589024433
 20
-57301.787383111863
 30
0.0
 11
102607.0589024433
 21
-57353.577859302328
 31
0.0
  0
LINE
  5
3ED
  8
\U+6807\U+6CE8
 62
     0
 10
102607.0589024433
 20
-57259.787383111863
 30
0.0
 11
102607.0589024433
 21
-57289.787383111863
 31
0.0
  0
SOLID
  5
3EE
  8
\U+6807\U+6CE8
 62
     0
 10
102605.0589024433
 20
-57247.787383111863
 30
0.0
 11
102609.0589024433
 21
-57247.787383111863
 31
0.0
 12
102607.0589024433
 22
-57259.787383111863
 32
0.0
 13
102607.0589024433
 23
-57259.787383111863
 33
0.0
  0
SOLID
  5
3EF
  8
\U+6807\U+6CE8
 62
     0
 10
102605.0589024433
 20
-57301.787383111863
 30
0.0
 11
102609.0589024433
 21
-57301.787383111863
 31
0.0
 12
102607.0589024433
 22
-57289.787383111863
 32
0.0
 13
102607.0589024433
 23
-57289.787383111863
 33
0.0
  0
INSERT
  5
3F0
  8
0
  2
*U173
 10
0.0
 20
0.0
 30
0.0
  0
POINT
  5
3F1
  8
DEFPOINTS
 62
     0
 10
102635.639621608
 20
-57259.787383111863
 30
0.0
  0
POINT
  5
3F2
  8
DEFPOINTS
 62
     0
 10
102670.1703407727
 20
-57289.787383111863
 30
0.0
  0
POINT
  5
3F3
  8
DEFPOINTS
 62
     0
 10
102607.0589024433
 20
-57289.787383111863
 30
0.0
  0
ENDBLK
  5
3F4
  8
0
  0
BLOCK
  8
0
  2
*D44
 70
     1
 10
0.0
 20
0.0
 30
0.0
  3
*D44
  1

  0
LINE
  5
3F7
  8
\U+6807\U+6CE8
 62
     0
 10
102632.97034077279
 20
-56777.187383111857
 30
0.0
 11
102540.6928775066
 21
-56777.187383111857
 31
0.0
  0
LINE
  5
3F8
  8
\U+6807\U+6CE8
 62
     0
 10
102632.97034077279
 20
-57289.787383111863
 30
0.0
 11
102540.6928775066
 21
-57289.787383111863
 31
0.0
  0
LINE
  5
3F9
  8
\U+6807\U+6CE8
 62
     0
 10
102553.1928775066
 20
-56792.187383111857
 30
0.0
 11
102553.1928775066
 21
-57274.787383111863
 31
0.0
  0
SOLID
  5
3FA
  8
\U+6807\U+6CE8
 62
     0
 10
102550.6928775066
 20
-56792.187383111857
 30
0.0
 11
102555.6928775066
 21
-56792.187383111857
 31
0.0
 12
102553.1928775066
 22
-56777.187383111857
 32
0.0
 13
102553.1928775066
 23
-56777.187383111857
 33
0.0
  0
SOLID
  5
3FB
  8
\U+6807\U+6CE8
 62
     0
 10
102550.6928775066
 20
-57274.787383111863
 30
0.0
 11
102555.6928775066
 21
-57274.787383111863
 31
0.0
 12
102553.1928775066
 22
-57289.787383111863
 32
0.0
 13
102553.1928775066
 23
-57289.787383111863
 33
0.0
  0
INSERT
  5
3FC
  8
0
  2
*U174
 10
0.0
 20
0.0
 30
0.0
  0
POINT
  5
3FD
  8
DEFPOINTS
 62
     0
 10
102639.22034077271
 20
-56777.187383111857
 30
0.0
  0
POINT
  5
3FE
  8
DEFPOINTS
 62
     0
 10
102639.22034077271
 20
-57289.787383111863
 30
0.0
  0
POINT
  5
3FF
  8
DEFPOINTS
 62
     0
 10
102553.1928775066
 20
-57289.787383111863
 30
0.0
  0
ENDBLK
  5
400
  8
0
  0
BLOCK
  8
0
  2
*D45
 70
     1
 10
0.0
 20
0.0
 30
0.0
  3
*D45
  1

  0
LINE
  5
403
  8
\U+6807\U+6CE8
 62
     0
 10
102672.97034077271
 20
-56853.387383111847
 30
0.0
 11
102594.5589024433
 21
-56853.387383111847
 31
0.0
  0
LINE
  5
404
  8
\U+6807\U+6CE8
 62
     0
 10
102672.97034077271
 20
-57259.787383111863
 30
0.0
 11
102594.5589024433
 21
-57259.787383111863
 31
0.0
  0
LINE
  5
405
  8
\U+6807\U+6CE8
 62
     0
 10
102607.0589024433
 20
-56868.387383111847
 30
0.0
 11
102607.0589024433
 21
-57244.787383111863
 31
0.0
  0
SOLID
  5
406
  8
\U+6807\U+6CE8
 62
     0
 10
102604.5589024433
 20
-56868.387383111847
 30
0.0
 11
102609.5589024433
 21
-56868.387383111847
 31
0.0
 12
102607.0589024433
 22
-56853.387383111847
 32
0.0
 13
102607.0589024433
 23
-56853.387383111847
 33
0.0
  0
SOLID
  5
407
  8
\U+6807\U+6CE8
 62
     0
 10
102604.5589024433
 20
-57244.787383111863
 30
0.0
 11
102609.5589024433
 21
-57244.787383111863
 31
0.0
 12
102607.0589024433
 22
-57259.787383111863
 32
0.0
 13
102607.0589024433
 23
-57259.787383111863
 33
0.0
  0
INSERT
  5
408
  8
0
  2
*U175
 10
0.0
 20
0.0
 30
0.0
  0
POINT
  5
409
  8
DEFPOINTS
 62
     0
 10
102679.22034077271
 20
-56853.387383111847
 30
0.0
  0
POINT
  5
40A
  8
DEFPOINTS
 62
     0
 10
102679.22034077271
 20
-57259.787383111863
 30
0.0
  0
POINT
  5
40B
  8
DEFPOINTS
 62
     0
 10
102607.0589024433
 20
-57259.787383111863
 30
0.0
  0
ENDBLK
  5
40C
  8
0
  0
BLOCK
  8
0
  2
*D46
 70
     1
 10
0.0
 20
0.0
 30
0.0
  3
*D46
  1

  0
LINE
  5
40F
  8
\U+6807\U+6CE8
 62
     0
 10
102627.97034077271
 20
-57449.92575719348
 30
0.0
 11
102570.44725966291
 21
-57449.92575719348
 31
0.0
  0
LINE
  5
410
  8
\U+6807\U+6CE8
 62
     0
 10
102686.0627067427
 20
-57678.525757193478
 30
0.0
 11
102570.44725966291
 21
-57678.525757193478
 31
0.0
  0
LINE
  5
411
  8
\U+6807\U+6CE8
 62
     0
 10
102582.94725966291
 20
-57464.92575719348
 30
0.0
 11
102582.94725966291
 21
-57663.525757193478
 31
0.0
  0
SOLID
  5
412
  8
\U+6807\U+6CE8
 62
     0
 10
102580.44725966291
 20
-57464.92575719348
 30
0.0
 11
102585.44725966291
 21
-57464.92575719348
 31
0.0
 12
102582.94725966291
 22
-57449.92575719348
 32
0.0
 13
102582.94725966291
 23
-57449.92575719348
 33
0.0
  0
SOLID
  5
413
  8
\U+6807\U+6CE8
 62
     0
 10
102580.44725966291
 20
-57663.525757193478
 30
0.0
 11
102585.44725966291
 21
-57663.525757193478
 31
0.0
 12
102582.94725966291
 22
-57678.525757193478
 32
0.0
 13
102582.94725966291
 23
-57678.525757193478
 33
0.0
  0
INSERT
  5
414
  8
0
  2
*U176
 10
0.0
 20
0.0
 30
0.0
  0
POINT
  5
415
  8
DEFPOINTS
 62
     0
 10
102634.22034077271
 20
-57449.92575719348
 30
0.0
  0
POINT
  5
416
  8
DEFPOINTS
 62
     0
 10
102692.3127067427
 20
-57678.525757193478
 30
0.0
  0
POINT
  5
417
  8
DEFPOINTS
 62
     0
 10
102582.94725966291
 20
-57678.525757193478
 30
0.0
  0
ENDBLK
  5
418
  8
0
  0
BLOCK
  8
0
  2
*D47
 70
     1
 10
0.0
 20
0.0
 30
0.0
  3
*D47
  1

  0
LINE
  5
41B
  8
\U+6807\U+6CE8
 62
     0
 10
102982.22034077271
 20
-56853.387383111847
 30
0.0
 11
102829.4333349736
 21
-56853.387383111847
 31
0.0
  0
LINE
  5
41C
  8
\U+6807\U+6CE8
 62
     0
 10
102982.22034077271
 20
-56973.387383111833
 30
0.0
 11
102829.4333349736
 21
-56973.387383111833
 31
0.0
  0
LINE
  5
41D
  8
\U+6807\U+6CE8
 62
     0
 10
102839.4333349736
 20
-56865.387383111862
 30
0.0
 11
102839.4333349736
 21
-56961.387383111847
 31
0.0
  0
SOLID
  5
41E
  8
\U+6807\U+6CE8
 62
     0
 10
102837.4333349736
 20
-56865.387383111862
 30
0.0
 11
102841.4333349736
 21
-56865.387383111862
 31
0.0
 12
102839.4333349736
 22
-56853.387383111847
 32
0.0
 13
102839.4333349736
 23
-56853.387383111847
 33
0.0
  0
SOLID
  5
41F
  8
\U+6807\U+6CE8
 62
     0
 10
102837.4333349736
 20
-56961.387383111847
 30
0.0
 11
102841.4333349736
 21
-56961.387383111847
 31
0.0
 12
102839.4333349736
 22
-56973.387383111833
 32
0.0
 13
102839.4333349736
 23
-56973.387383111833
 33
0.0
  0
INSERT
  5
420
  8
0
  2
*U177
 10
0.0
 20
0.0
 30
0.0
  0
POINT
  5
421
  8
DEFPOINTS
 62
     0
 10
102987.22034077271
 20
-56853.387383111847
 30
0.0
  0
POINT
  5
422
  8
DEFPOINTS
 62
     0
 10
102987.22034077271
 20
-56973.387383111833
 30
0.0
  0
POINT
  5
423
  8
DEFPOINTS
 62
     0
 10
102839.4333349736
 20
-56973.387383111833
 30
0.0
  0
ENDBLK
  5
424
  8
0
  0
BLOCK
  8
0
  2
*D48
 70
     1
 10
0.0
 20
0.0
 30
0.0
  3
*D48
  1

  0
LINE
  5
427
  8
\U+6807\U+6CE8
 62
     0
 10
102721.68265712709
 20
-56919.323972903738
 30
0.0
 11
102677.2993829023
 21
-56866.083056559488
 31
0.0
  0
INSERT
  5
428
  8
0
  2
*U178
 10
0.0
 20
0.0
 30
0.0
  0
SOLID
  5
429
  8
\U+6807\U+6CE8
 62
     0
 10
102678.835600604
 20
-56864.802417979219
 30
0.0
 11
102675.7631652007
 21
-56867.36369513972
 31
0.0
 12
102669.61555142079
 22
-56856.865750349847
 32
0.0
 13
102669.61555142079
 23
-56856.865750349847
 33
0.0
  0
POINT
  5
42A
  8
DEFPOINTS
 62
     0
 10
102669.61555142079
 20
-56856.865750349847
 30
0.0
  0
POINT
  5
42B
  8
DEFPOINTS
 62
     0
 10
102679.22034077271
 20
-56868.387383111862
 30
0.0
  0
ENDBLK
  5
42C
  8
0
  0
BLOCK
  8
0
  2
*D49
 70
     1
 10
0.0
 20
0.0
 30
0.0
  3
*D49
  1

  0
LINE
  5
42F
  8
\U+6807\U+6CE8
 62
     0
 10
102634.22034077271
 20
-57038.487383111868
 30
0.0
 11
102634.22034077271
 21
-57083.524592128269
 31
0.0
  0
LINE
  5
430
  8
\U+6807\U+6CE8
 62
     0
 10
102664.22034077271
 20
-57038.487383111868
 30
0.0
 11
102664.22034077271
 21
-57083.524592128269
 31
0.0
  0
LINE
  5
431
  8
\U+6807\U+6CE8
 62
     0
 10
102622.22034077271
 20
-57073.524592128269
 30
0.0
 11
102610.22034077271
 21
-57073.524592128269
 31
0.0
  0
LINE
  5
432
  8
\U+6807\U+6CE8
 62
     0
 10
102676.22034077271
 20
-57073.524592128269
 30
0.0
 11
102728.0108169632
 21
-57073.524592128269
 31
0.0
  0
LINE
  5
433
  8
\U+6807\U+6CE8
 62
     0
 10
102634.22034077271
 20
-57073.524592128269
 30
0.0
 11
102664.22034077271
 21
-57073.524592128269
 31
0.0
  0
SOLID
  5
434
  8
\U+6807\U+6CE8
 62
     0
 10
102622.22034077271
 20
-57071.524592128269
 30
0.0
 11
102622.22034077271
 21
-57075.524592128269
 31
0.0
 12
102634.22034077271
 22
-57073.524592128269
 32
0.0
 13
102634.22034077271
 23
-57073.524592128269
 33
0.0
  0
SOLID
  5
435
  8
\U+6807\U+6CE8
 62
     0
 10
102676.22034077271
 20
-57071.524592128269
 30
0.0
 11
102676.22034077271
 21
-57075.524592128269
 31
0.0
 12
102664.22034077271
 22
-57073.524592128269
 32
0.0
 13
102664.22034077271
 23
-57073.524592128269
 33
0.0
  0
INSERT
  5
436
  8
0
  2
*U179
 10
0.0
 20
0.0
 30
0.0
  0
POINT
  5
437
  8
DEFPOINTS
 62
     0
 10
102634.22034077271
 20
-57033.487383111868
 30
0.0
  0
POINT
  5
438
  8
DEFPOINTS
 62
     0
 10
102664.22034077271
 20
-57033.487383111868
 30
0.0
  0
POINT
  5
439
  8
DEFPOINTS
 62
     0
 10
102664.22034077271
 20
-57073.524592128269
 30
0.0
  0
ENDBLK
  5
43A
  8
0
  0
BLOCK
  8
0
  2
*D50
 70
     1
 10
0.0
 20
0.0
 30
0.0
  3
*D50
  1

  0
LINE
  5
43D
  8
\U+6807\U+6CE8
 62
     0
 10
102634.22034077271
 20
-56775.937383111857
 30
0.0
 11
102634.22034077271
 21
-56639.365630964421
 31
0.0
  0
LINE
  5
43E
  8
\U+6807\U+6CE8
 62
     0
 10
103340.22034077271
 20
-56775.937383111857
 30
0.0
 11
103340.22034077271
 21
-56639.365630964421
 31
0.0
  0
LINE
  5
43F
  8
\U+6807\U+6CE8
 62
     0
 10
102649.22034077271
 20
-56651.865630964392
 30
0.0
 11
103325.22034077271
 21
-56651.865630964392
 31
0.0
  0
SOLID
  5
440
  8
\U+6807\U+6CE8
 62
     0
 10
102649.22034077271
 20
-56649.365630964399
 30
0.0
 11
102649.22034077271
 21
-56654.365630964421
 31
0.0
 12
102634.22034077271
 22
-56651.865630964392
 32
0.0
 13
102634.22034077271
 23
-56651.865630964392
 33
0.0
  0
SOLID
  5
441
  8
\U+6807\U+6CE8
 62
     0
 10
103325.22034077271
 20
-56649.365630964399
 30
0.0
 11
103325.22034077271
 21
-56654.365630964421
 31
0.0
 12
103340.22034077271
 22
-56651.865630964392
 32
0.0
 13
103340.22034077271
 23
-56651.865630964392
 33
0.0
  0
INSERT
  5
442
  8
0
  2
*U180
 10
0.0
 20
0.0
 30
0.0
  0
POINT
  5
443
  8
DEFPOINTS
 62
     0
 10
102634.22034077271
 20
-56782.187383111828
 30
0.0
  0
POINT
  5
444
  8
DEFPOINTS
 62
     0
 10
103340.22034077271
 20
-56782.187383111828
 30
0.0
  0
POINT
  5
445
  8
DEFPOINTS
 62
     0
 10
103340.22034077271
 20
-56651.865630964392
 30
0.0
  0
ENDBLK
  5
446
  8
0
  0
BLOCK
  8
0
  2
*D51
 70
     1
 10
0.0
 20
0.0
 30
0.0
  3
*D51
  1

  0
LINE
  5
449
  8
\U+6807\U+6CE8
 62
     0
 10
103063.9065835704
 20
-56917.040990602763
 30
0.0
 11
103005.77324262929
 21
-56839.22263693987
 31
0.0
  0
LINE
  5
44A
  8
\U+6807\U+6CE8
 62
     0
 10
102968.66743891621
 20
-56789.552129283838
 30
0.0
 11
102961.4856704556
 21
-56779.938482640733
 31
0.0
  0
INSERT
  5
44B
  8
0
  2
*U181
 10
0.0
 20
0.0
 30
0.0
  0
LINE
  5
44C
  8
\U+6807\U+6CE8
 62
     0
 10
102975.8492073768
 20
-56799.165775926922
 30
0.0
 11
102998.5914741686
 21
-56829.608990296758
 31
0.0
  0
SOLID
  5
44D
  8
\U+6807\U+6CE8
 62
     0
 10
102970.2697133567
 20
-56788.355167873742
 30
0.0
 11
102967.0651644757
 21
-56790.749090693927
 31
0.0
 12
102975.8492073768
 22
-56799.165775926922
 32
0.0
 13
102975.8492073768
 23
-56799.165775926922
 33
0.0
  0
SOLID
  5
44E
  8
\U+6807\U+6CE8
 62
     0
 10
103007.3755170698
 20
-56838.025675529767
 30
0.0
 11
103004.1709681887
 21
-56840.419598349959
 31
0.0
 12
102998.5914741686
 22
-56829.608990296758
 32
0.0
 13
102998.5914741686
 23
-56829.608990296758
 33
0.0
  0
POINT
  5
44F
  8
DEFPOINTS
 62
     0
 10
102998.5914741686
 20
-56829.608990296758
 30
0.0
  0
POINT
  5
450
  8
DEFPOINTS
 62
     0
 10
102975.8492073768
 20
-56799.165775926922
 30
0.0
  0
ENDBLK
  5
451
  8
0
  0
BLOCK
  8
0
  2
*D52
 70
     1
 10
0.0
 20
0.0
 30
0.0
  3
*D52
  1

  0
LINE
  5
454
  8
\U+6807\U+6CE8
 62
     0
 10
105233.88251480881
 20
-56789.934077209378
 30
0.0
 11
105233.88251480881
 21
-56632.172920184872
 31
0.0
  0
LINE
  5
455
  8
\U+6807\U+6CE8
 62
     0
 10
105779.9825148089
 20
-56789.934077209378
 30
0.0
 11
105779.9825148089
 21
-56632.172920184872
 31
0.0
  0
LINE
  5
456
  8
\U+6807\U+6CE8
 62
     0
 10
105245.88251480881
 20
-56642.172920184872
 30
0.0
 11
105767.9825148089
 21
-56642.172920184872
 31
0.0
  0
SOLID
  5
457
  8
\U+6807\U+6CE8
 62
     0
 10
105245.88251480881
 20
-56640.172920184872
 30
0.0
 11
105245.88251480881
 21
-56644.172920184872
 31
0.0
 12
105233.88251480881
 22
-56642.172920184872
 32
0.0
 13
105233.88251480881
 23
-56642.172920184872
 33
0.0
  0
SOLID
  5
458
  8
\U+6807\U+6CE8
 62
     0
 10
105767.9825148089
 20
-56640.172920184872
 30
0.0
 11
105767.9825148089
 21
-56644.172920184872
 31
0.0
 12
105779.9825148089
 22
-56642.172920184872
 32
0.0
 13
105779.9825148089
 23
-56642.172920184872
 33
0.0
  0
INSERT
  5
459
  8
0
  2
*U182
 10
0.0
 20
0.0
 30
0.0
  0
POINT
  5
45A
  8
DEFPOINTS
 62
     0
 10
105233.88251480881
 20
-56794.934077209371
 30
0.0
  0
POINT
  5
45B
  8
DEFPOINTS
 62
     0
 10
105779.9825148089
 20
-56794.934077209371
 30
0.0
  0
POINT
  5
45C
  8
DEFPOINTS
 62
     0
 10
105779.9825148089
 20
-56642.172920184872
 30
0.0
  0
ENDBLK
  5
45D
  8
0
  0
BLOCK
  8
0
  2
*D53
 70
     1
 10
0.0
 20
0.0
 30
0.0
  3
*D53
  1

  0
LINE
  5
460
  8
\U+6807\U+6CE8
 62
     0
 10
105243.88251480881
 20
-56779.934077209371
 30
0.0
 11
105177.3503880879
 21
-56779.934077209371
 31
0.0
  0
LINE
  5
461
  8
\U+6807\U+6CE8
 62
     0
 10
105243.88251480881
 20
-57186.334077209387
 30
0.0
 11
105177.3503880879
 21
-57186.334077209387
 31
0.0
  0
LINE
  5
462
  8
\U+6807\U+6CE8
 62
     0
 10
105187.3503880879
 20
-56791.934077209378
 30
0.0
 11
105187.3503880879
 21
-57174.334077209372
 31
0.0
  0
SOLID
  5
463
  8
\U+6807\U+6CE8
 62
     0
 10
105185.3503880879
 20
-56791.934077209378
 30
0.0
 11
105189.3503880879
 21
-56791.934077209378
 31
0.0
 12
105187.3503880879
 22
-56779.934077209371
 32
0.0
 13
105187.3503880879
 23
-56779.934077209371
 33
0.0
  0
SOLID
  5
464
  8
\U+6807\U+6CE8
 62
     0
 10
105185.3503880879
 20
-57174.334077209372
 30
0.0
 11
105189.3503880879
 21
-57174.334077209372
 31
0.0
 12
105187.3503880879
 22
-57186.334077209387
 32
0.0
 13
105187.3503880879
 23
-57186.334077209387
 33
0.0
  0
INSERT
  5
465
  8
0
  2
*U183
 10
0.0
 20
0.0
 30
0.0
  0
POINT
  5
466
  8
DEFPOINTS
 62
     0
 10
105248.88251480881
 20
-56779.934077209371
 30
0.0
  0
POINT
  5
467
  8
DEFPOINTS
 62
     0
 10
105248.88251480881
 20
-57186.334077209387
 30
0.0
  0
POINT
  5
468
  8
DEFPOINTS
 62
     0
 10
105187.3503880879
 20
-57186.334077209387
 30
0.0
  0
ENDBLK
  5
469
  8
0
  0
BLOCK
  8
0
  2
*D54
 70
     1
 10
0.0
 20
0.0
 30
0.0
  3
*D54
  1

  0
LINE
  5
46C
  8
\U+6807\U+6CE8
 62
     0
 10
105209.8325148088
 20
-57381.834879226073
 30
0.0
 11
105166.0976783433
 21
-57381.834879226073
 31
0.0
  0
LINE
  5
46D
  8
\U+6807\U+6CE8
 62
     0
 10
105256.9748807789
 20
-57610.434879226072
 30
0.0
 11
105166.0976783433
 21
-57610.434879226072
 31
0.0
  0
LINE
  5
46E
  8
\U+6807\U+6CE8
 62
     0
 10
105176.0976783433
 20
-57393.834879226073
 30
0.0
 11
105176.0976783433
 21
-57598.434879226072
 31
0.0
  0
SOLID
  5
46F
  8
\U+6807\U+6CE8
 62
     0
 10
105174.0976783433
 20
-57393.834879226073
 30
0.0
 11
105178.0976783433
 21
-57393.834879226073
 31
0.0
 12
105176.0976783433
 22
-57381.834879226073
 32
0.0
 13
105176.0976783433
 23
-57381.834879226073
 33
0.0
  0
SOLID
  5
470
  8
\U+6807\U+6CE8
 62
     0
 10
105174.0976783433
 20
-57598.434879226072
 30
0.0
 11
105178.0976783433
 21
-57598.434879226072
 31
0.0
 12
105176.0976783433
 22
-57610.434879226072
 32
0.0
 13
105176.0976783433
 23
-57610.434879226072
 33
0.0
  0
INSERT
  5
471
  8
0
  2
*U184
 10
0.0
 20
0.0
 30
0.0
  0
POINT
  5
472
  8
DEFPOINTS
 62
     0
 10
105214.8325148088
 20
-57381.834879226073
 30
0.0
  0
POINT
  5
473
  8
DEFPOINTS
 62
     0
 10
105261.9748807789
 20
-57610.434879226072
 30
0.0
  0
POINT
  5
474
  8
DEFPOINTS
 62
     0
 10
105176.0976783433
 20
-57610.434879226072
 30
0.0
  0
ENDBLK
  5
475
  8
0
  0
BLOCK
  8
0
  2
*D55
 70
     1
 10
0.0
 20
0.0
 30
0.0
  3
*D55
  1

  0
LINE
  5
478
  8
\U+6807\U+6CE8
 62
     0
 10
105501.9325148089
 20
-56779.934077209371
 30
0.0
 11
105342.21587460639
 21
-56779.934077209371
 31
0.0
  0
LINE
  5
479
  8
\U+6807\U+6CE8
 62
     0
 10
105501.9325148089
 20
-56899.934077209393
 30
0.0
 11
105342.21587460639
 21
-56899.934077209393
 31
0.0
  0
LINE
  5
47A
  8
\U+6807\U+6CE8
 62
     0
 10
105352.21587460639
 20
-56791.934077209378
 30
0.0
 11
105352.21587460639
 21
-56887.934077209393
 31
0.0
  0
SOLID
  5
47B
  8
\U+6807\U+6CE8
 62
     0
 10
105350.21587460639
 20
-56791.934077209378
 30
0.0
 11
105354.21587460639
 21
-56791.934077209378
 31
0.0
 12
105352.21587460639
 22
-56779.934077209371
 32
0.0
 13
105352.21587460639
 23
-56779.934077209371
 33
0.0
  0
SOLID
  5
47C
  8
\U+6807\U+6CE8
 62
     0
 10
105350.21587460639
 20
-56887.934077209393
 30
0.0
 11
105354.21587460639
 21
-56887.934077209393
 31
0.0
 12
105352.21587460639
 22
-56899.934077209393
 32
0.0
 13
105352.21587460639
 23
-56899.934077209393
 33
0.0
  0
INSERT
  5
47D
  8
0
  2
*U185
 10
0.0
 20
0.0
 30
0.0
  0
POINT
  5
47E
  8
DEFPOINTS
 62
     0
 10
105506.9325148088
 20
-56779.934077209371
 30
0.0
  0
POINT
  5
47F
  8
DEFPOINTS
 62
     0
 10
105506.9325148088
 20
-56899.934077209393
 30
0.0
  0
POINT
  5
480
  8
DEFPOINTS
 62
     0
 10
105352.21587460639
 20
-56899.934077209393
 30
0.0
  0
ENDBLK
  5
481
  8
0
  0
BLOCK
  8
0
  2
*D56
 70
     1
 10
0.0
 20
0.0
 30
0.0
  3
*D56
  1

  0
LINE
  5
484
  8
\U+6807\U+6CE8
 62
     0
 10
105228.88251480881
 20
-56703.734077209367
 30
0.0
 11
105177.31038808791
 21
-56703.734077209367
 31
0.0
  0
LINE
  5
485
  8
\U+6807\U+6CE8
 62
     0
 10
105243.88251480881
 20
-56779.934077209371
 30
0.0
 11
105177.31038808791
 21
-56779.934077209371
 31
0.0
  0
LINE
  5
486
  8
\U+6807\U+6CE8
 62
     0
 10
105187.31038808791
 20
-56715.734077209367
 30
0.0
 11
105187.31038808791
 21
-56767.934077209371
 31
0.0
  0
SOLID
  5
487
  8
\U+6807\U+6CE8
 62
     0
 10
105185.31038808791
 20
-56715.734077209367
 30
0.0
 11
105189.31038808791
 21
-56715.734077209367
 31
0.0
 12
105187.31038808791
 22
-56703.734077209367
 32
0.0
 13
105187.31038808791
 23
-56703.734077209367
 33
0.0
  0
SOLID
  5
488
  8
\U+6807\U+6CE8
 62
     0
 10
105185.31038808791
 20
-56767.934077209371
 30
0.0
 11
105189.31038808791
 21
-56767.934077209371
 31
0.0
 12
105187.31038808791
 22
-56779.934077209371
 32
0.0
 13
105187.31038808791
 23
-56779.934077209371
 33
0.0
  0
INSERT
  5
489
  8
0
  2
*U186
 10
0.0
 20
0.0
 30
0.0
  0
POINT
  5
48A
  8
DEFPOINTS
 62
     0
 10
105233.88251480881
 20
-56703.734077209367
 30
0.0
  0
POINT
  5
48B
  8
DEFPOINTS
 62
     0
 10
105248.88251480881
 20
-56779.934077209371
 30
0.0
  0
POINT
  5
48C
  8
DEFPOINTS
 62
     0
 10
105187.31038808791
 20
-56779.934077209371
 30
0.0
  0
ENDBLK
  5
48D
  8
0
  0
BLOCK
  8
0
  2
*D57
 70
     1
 10
0.0
 20
0.0
 30
0.0
  3
*D57
  1

  0
LINE
  5
490
  8
\U+6807\U+6CE8
 62
     0
 10
105243.88251480881
 20
-57186.334077209387
 30
0.0
 11
105177.3503880879
 21
-57186.334077209387
 31
0.0
  0
LINE
  5
491
  8
\U+6807\U+6CE8
 62
     0
 10
105243.88251480881
 20
-57216.334077209372
 30
0.0
 11
105177.3503880879
 21
-57216.334077209372
 31
0.0
  0
LINE
  5
492
  8
\U+6807\U+6CE8
 62
     0
 10
105187.3503880879
 20
-57174.334077209372
 30
0.0
 11
105187.3503880879
 21
-57162.334077209372
 31
0.0
  0
LINE
  5
493
  8
\U+6807\U+6CE8
 62
     0
 10
105187.3503880879
 20
-57228.334077209372
 30
0.0
 11
105187.3503880879
 21
-57280.124553399852
 31
0.0
  0
LINE
  5
494
  8
\U+6807\U+6CE8
 62
     0
 10
105187.3503880879
 20
-57186.334077209387
 30
0.0
 11
105187.3503880879
 21
-57216.334077209372
 31
0.0
  0
SOLID
  5
495
  8
\U+6807\U+6CE8
 62
     0
 10
105185.3503880879
 20
-57174.334077209372
 30
0.0
 11
105189.3503880879
 21
-57174.334077209372
 31
0.0
 12
105187.3503880879
 22
-57186.334077209387
 32
0.0
 13
105187.3503880879
 23
-57186.334077209387
 33
0.0
  0
SOLID
  5
496
  8
\U+6807\U+6CE8
 62
     0
 10
105185.3503880879
 20
-57228.334077209372
 30
0.0
 11
105189.3503880879
 21
-57228.334077209372
 31
0.0
 12
105187.3503880879
 22
-57216.334077209372
 32
0.0
 13
105187.3503880879
 23
-57216.334077209372
 33
0.0
  0
INSERT
  5
497
  8
0
  2
*U187
 10
0.0
 20
0.0
 30
0.0
  0
POINT
  5
498
  8
DEFPOINTS
 62
     0
 10
105248.88251480881
 20
-57186.334077209387
 30
0.0
  0
POINT
  5
499
  8
DEFPOINTS
 62
     0
 10
105248.88251480881
 20
-57216.334077209372
 30
0.0
  0
POINT
  5
49A
  8
DEFPOINTS
 62
     0
 10
105187.3503880879
 20
-57216.334077209372
 30
0.0
  0
ENDBLK
  5
49B
  8
0
  0
BLOCK
  8
0
  2
*D58
 70
     1
 10
0.0
 20
0.0
 30
0.0
  3
*D58
  1

  0
LINE
  5
49E
  8
\U+6807\U+6CE8
 62
     0
 10
105284.5409140204
 20
-56850.845284095769
 30
0.0
 11
105247.2693601699
 21
-56792.404703352142
 31
0.0
  0
INSERT
  5
49F
  8
0
  2
*U188
 10
0.0
 20
0.0
 30
0.0
  0
SOLID
  5
4A0
  8
\U+6807\U+6CE8
 62
     0
 10
105248.95560940821
 20
-56791.329266926114
 30
0.0
 11
105245.58311093161
 21
-56793.48013977817
 31
0.0
 12
105240.8167416137
 22
-56782.287207922491
 32
0.0
 13
105240.8167416137
 23
-56782.287207922491
 33
0.0
  0
POINT
  5
4A1
  8
DEFPOINTS
 62
     0
 10
105240.8167416137
 20
-56782.287207922491
 30
0.0
  0
POINT
  5
4A2
  8
DEFPOINTS
 62
     0
 10
105248.88251480881
 20
-56794.934077209407
 30
0.0
  0
ENDBLK
  5
4A3
  8
0
  0
BLOCK
  8
0
  2
*D59
 70
     1
 10
0.0
 20
0.0
 30
0.0
  3
*D59
  1

  0
LINE
  5
4A6
  8
\U+6807\U+6CE8
 62
     0
 10
105314.5542329895
 20
-57555.02453140678
 30
0.0
 11
105259.5962370983
 21
-57597.26300784362
 31
0.0
  0
INSERT
  5
4A7
  8
0
  2
*U189
 10
0.0
 20
0.0
 30
0.0
  0
SOLID
  5
4A8
  8
\U+6807\U+6CE8
 62
     0
 10
105258.3774846867
 20
-57595.677245390019
 30
0.0
 11
105260.81498951001
 21
-57598.848770297191
 31
0.0
 12
105250.0816623768
 22
-57604.575522313309
 32
0.0
 13
105250.0816623768
 23
-57604.575522313309
 33
0.0
  0
POINT
  5
4A9
  8
DEFPOINTS
 62
     0
 10
105250.0816623768
 20
-57604.575522313309
 30
0.0
  0
POINT
  5
4AA
  8
DEFPOINTS
 62
     0
 10
105261.9748807788
 20
-57595.434879226072
 30
0.0
  0
ENDBLK
  5
4AB
  8
0
  0
BLOCK
  8
0
  2
*D60
 70
     1
 10
0.0
 20
0.0
 30
0.0
  3
*D60
  1

  0
LINE
  5
4AE
  8
\U+6807\U+6CE8
 62
     0
 10
105203.88251480881
 20
-57070.210523837581
 30
0.0
 11
105203.88251480881
 21
-57104.51931043162
 31
0.0
  0
LINE
  5
4AF
  8
\U+6807\U+6CE8
 62
     0
 10
105233.88251480881
 20
-57040.210523837581
 30
0.0
 11
105233.88251480881
 21
-57104.51931043162
 31
0.0
  0
LINE
  5
4B0
  8
\U+6807\U+6CE8
 62
     0
 10
105191.88251480881
 20
-57094.51931043162
 30
0.0
 11
105179.88251480881
 21
-57094.51931043162
 31
0.0
  0
LINE
  5
4B1
  8
\U+6807\U+6CE8
 62
     0
 10
105245.88251480881
 20
-57094.51931043162
 30
0.0
 11
105297.6729909993
 21
-57094.51931043162
 31
0.0
  0
LINE
  5
4B2
  8
\U+6807\U+6CE8
 62
     0
 10
105203.88251480881
 20
-57094.51931043162
 30
0.0
 11
105233.88251480881
 21
-57094.51931043162
 31
0.0
  0
SOLID
  5
4B3
  8
\U+6807\U+6CE8
 62
     0
 10
105191.88251480881
 20
-57092.51931043162
 30
0.0
 11
105191.88251480881
 21
-57096.51931043162
 31
0.0
 12
105203.88251480881
 22
-57094.51931043162
 32
0.0
 13
105203.88251480881
 23
-57094.51931043162
 33
0.0
  0
SOLID
  5
4B4
  8
\U+6807\U+6CE8
 62
     0
 10
105245.88251480881
 20
-57092.51931043162
 30
0.0
 11
105245.88251480881
 21
-57096.51931043162
 31
0.0
 12
105233.88251480881
 22
-57094.51931043162
 32
0.0
 13
105233.88251480881
 23
-57094.51931043162
 33
0.0
  0
INSERT
  5
4B5
  8
0
  2
*U190
 10
0.0
 20
0.0
 30
0.0
  0
POINT
  5
4B6
  8
DEFPOINTS
 62
     0
 10
105203.88251480881
 20
-57065.210523837581
 30
0.0
  0
POINT
  5
4B7
  8
DEFPOINTS
 62
     0
 10
105233.88251480881
 20
-57035.210523837581
 30
0.0
  0
POINT
  5
4B8
  8
DEFPOINTS
 62
     0
 10
105233.88251480881
 20
-57094.51931043162
 30
0.0
  0
ENDBLK
  5
4B9
  8
0
  0
BLOCK
  8
0
  2
*D61
 70
     1
 10
0.0
 20
0.0
 30
0.0
  3
*D61
  1

  0
LINE
  5
4BC
  8
\U+6807\U+6CE8
 62
     0
 10
105203.88251480881
 20
-56703.734077209367
 30
0.0
 11
105203.88251480881
 21
-56591.139163488449
 31
0.0
  0
LINE
  5
4BD
  8
\U+6807\U+6CE8
 62
     0
 10
105809.9825148089
 20
-56730.925881030518
 30
0.0
 11
105809.9825148089
 21
-56591.139163488449
 31
0.0
  0
LINE
  5
4BE
  8
\U+6807\U+6CE8
 62
     0
 10
105215.88251480881
 20
-56601.139163488449
 30
0.0
 11
105797.9825148089
 21
-56601.139163488449
 31
0.0
  0
SOLID
  5
4BF
  8
\U+6807\U+6CE8
 62
     0
 10
105215.88251480881
 20
-56599.139163488449
 30
0.0
 11
105215.88251480881
 21
-56603.139163488449
 31
0.0
 12
105203.88251480881
 22
-56601.139163488449
 32
0.0
 13
105203.88251480881
 23
-56601.139163488449
 33
0.0
  0
SOLID
  5
4C0
  8
\U+6807\U+6CE8
 62
     0
 10
105797.9825148089
 20
-56599.139163488449
 30
0.0
 11
105797.9825148089
 21
-56603.139163488449
 31
0.0
 12
105809.9825148089
 22
-56601.139163488449
 32
0.0
 13
105809.9825148089
 23
-56601.139163488449
 33
0.0
  0
INSERT
  5
4C1
  8
0
  2
*U191
 10
0.0
 20
0.0
 30
0.0
  0
POINT
  5
4C2
  8
DEFPOINTS
 62
     0
 10
105203.88251480881
 20
-56708.734077209367
 30
0.0
  0
POINT
  5
4C3
  8
DEFPOINTS
 62
     0
 10
105809.9825148089
 20
-56735.925881030511
 30
0.0
  0
POINT
  5
4C4
  8
DEFPOINTS
 62
     0
 10
105809.9825148089
 20
-56601.139163488449
 30
0.0
  0
ENDBLK
  5
4C5
  8
0
  0
BLOCK
  8
0
  2
*D62
 70
     1
 10
0.0
 20
0.0
 30
0.0
  3
*D62
  1

  0
LINE
  5
4C8
  8
\U+6807\U+6CE8
 62
     0
 10
105223.88251480881
 20
-56703.734077209367
 30
0.0
 11
105127.7545265294
 21
-56703.734077209367
 31
0.0
  0
LINE
  5
4C9
  8
\U+6807\U+6CE8
 62
     0
 10
105223.88251480881
 20
-57216.334077209372
 30
0.0
 11
105127.7545265294
 21
-57216.334077209372
 31
0.0
  0
LINE
  5
4CA
  8
\U+6807\U+6CE8
 62
     0
 10
105137.7545265294
 20
-56715.734077209367
 30
0.0
 11
105137.7545265294
 21
-57204.334077209372
 31
0.0
  0
SOLID
  5
4CB
  8
\U+6807\U+6CE8
 62
     0
 10
105135.7545265294
 20
-56715.734077209367
 30
0.0
 11
105139.7545265294
 21
-56715.734077209367
 31
0.0
 12
105137.7545265294
 22
-56703.734077209367
 32
0.0
 13
105137.7545265294
 23
-56703.734077209367
 33
0.0
  0
SOLID
  5
4CC
  8
\U+6807\U+6CE8
 62
     0
 10
105135.7545265294
 20
-57204.334077209372
 30
0.0
 11
105139.7545265294
 21
-57204.334077209372
 31
0.0
 12
105137.7545265294
 22
-57216.334077209372
 32
0.0
 13
105137.7545265294
 23
-57216.334077209372
 33
0.0
  0
INSERT
  5
4CD
  8
0
  2
*U192
 10
0.0
 20
0.0
 30
0.0
  0
POINT
  5
4CE
  8
DEFPOINTS
 62
     0
 10
105228.88251480881
 20
-56703.734077209367
 30
0.0
  0
POINT
  5
4CF
  8
DEFPOINTS
 62
     0
 10
105228.88251480881
 20
-57216.334077209372
 30
0.0
  0
POINT
  5
4D0
  8
DEFPOINTS
 62
     0
 10
105137.7545265294
 20
-57216.334077209372
 30
0.0
  0
ENDBLK
  5
4D1
  8
0
  0
BLOCK
  8
0
  2
*D63
 70
     1
 10
0.0
 20
0.0
 30
0.0
  3
*D63
  1

  0
LINE
  5
4D4
  8
\U+6807\U+6CE8
 62
     0
 10
105603.96113397241
 20
-56840.320027750713
 30
0.0
 11
105528.5881818886
 21
-56763.115873424562
 31
0.0
  0
LINE
  5
4D5
  8
\U+6807\U+6CE8
 62
     0
 10
105485.2768477291
 20
-56718.75228099418
 30
0.0
 11
105476.8940088595
 21
-56710.165779233474
 31
0.0
  0
INSERT
  5
4D6
  8
0
  2
*U193
 10
0.0
 20
0.0
 30
0.0
  0
LINE
  5
4D7
  8
\U+6807\U+6CE8
 62
     0
 10
105493.65968659869
 20
-56727.338782754909
 30
0.0
 11
105520.205343019
 21
-56754.529371663848
 31
0.0
  0
SOLID
  5
4D8
  8
\U+6807\U+6CE8
 62
     0
 10
105486.70793135589
 20
-56717.355141182583
 30
0.0
 11
105483.8457641023
 21
-56720.149420805763
 31
0.0
 12
105493.65968659869
 22
-56727.338782754909
 32
0.0
 13
105493.65968659869
 23
-56727.338782754909
 33
0.0
  0
SOLID
  5
4D9
  8
\U+6807\U+6CE8
 62
     0
 10
105530.01926551529
 20
-56761.718733612979
 30
0.0
 11
105527.1570982618
 21
-56764.513013236152
 31
0.0
 12
105520.205343019
 22
-56754.529371663848
 32
0.0
 13
105520.205343019
 23
-56754.529371663848
 33
0.0
  0
POINT
  5
4DA
  8
DEFPOINTS
 62
     0
 10
105520.205343019
 20
-56754.529371663848
 30
0.0
  0
POINT
  5
4DB
  8
DEFPOINTS
 62
     0
 10
105493.65968659869
 20
-56727.338782754909
 30
0.0
  0
ENDBLK
  5
4DC
  8
0
  0
BLOCK
  8
0
  2
*D64
 70
     1
 10
0.0
 20
0.0
 30
0.0
  3
*D64
  1

  0
LINE
  5
4DF
  8
\U+5916\U+6846\U+7EBF1
 62
     0
 10
102770.2323138318
 20
-57606.913245645803
 30
0.0
 11
102714.1560851762
 21
-57647.655444700897
 31
0.0
  0
INSERT
  5
4E0
  8
0
  2
*U194
 10
0.0
 20
0.0
 30
0.0
  0
LINE
  5
4E1
  8
\U+5916\U+6846\U+7EBF1
 62
     0
 10
102692.3127067428
 20
-57663.525757193464
 30
0.0
 11
102704.4479169836
 21
-57654.708916919823
 31
0.0
  0
SOLID
  5
4E2
  8
\U+5916\U+6846\U+7EBF1
 62
     0
 10
102712.980506473
 20
-57646.037416668798
 30
0.0
 11
102715.3316638793
 21
-57649.273472733003
 31
0.0
 12
102704.4479169836
 22
-57654.708916919823
 32
0.0
 13
102704.4479169836
 23
-57654.708916919823
 33
0.0
  0
ARC
  5
4E3
  8
\U+5916\U+6846\U+7EBF1
 62
     0
 10
102692.3127067428
 20
-57663.525757193464
 30
0.0
 40
14.999999999934509
 50
289.09859317111079
 51
74.19747666022306
  0
POINT
  5
4E4
  8
DEFPOINTS
 62
     0
 10
102704.4479169836
 20
-57654.708916919823
 30
0.0
  0
POINT
  5
4E5
  8
DEFPOINTS
 62
     0
 10
102692.3127067428
 20
-57663.525757193464
 30
0.0
  0
ENDBLK
  5
4E6
  8
0
  0
BLOCK
  8
0
  2
*D65
 70
     1
 10
0.0
 20
0.0
 30
0.0
  3
*D65
  1

  0
LINE
  5
7A9
  8
\U+6807\U+6CE8
 62
     0
 10
1661.9966466058791
 20
5355.2116429038333
 30
0.0
 11
1661.9966466058791
 21
5447.7558998631912
 31
0.0
  0
LINE
  5
7AA
  8
\U+6807\U+6CE8
 62
     0
 10
2307.9966466058499
 20
5367.5761758439958
 30
0.0
 11
2307.9966466058499
 21
5447.7558998631912
 31
0.0
  0
LINE
  5
7AB
  8
\U+6807\U+6CE8
 62
     0
 10
1676.99664660588
 20
5435.2558998631912
 30
0.0
 11
2292.9966466058522
 21
5435.2558998631912
 31
0.0
  0
SOLID
  5
7AC
  8
\U+6807\U+6CE8
 62
     0
 10
1676.99664660588
 20
5437.7558998631912
 30
0.0
 11
1676.99664660588
 21
5432.7558998631921
 31
0.0
 12
1661.9966466058791
 22
5435.2558998631912
 32
0.0
 13
1661.9966466058791
 23
5435.2558998631912
 33
0.0
  0
SOLID
  5
7AD
  8
\U+6807\U+6CE8
 62
     0
 10
2292.9966466058522
 20
5437.7558998631912
 30
0.0
 11
2292.9966466058522
 21
5432.7558998631921
 31
0.0
 12
2307.9966466058499
 22
5435.2558998631912
 32
0.0
 13
2307.9966466058499
 23
5435.2558998631912
 33
0.0
  0
INSERT
  5
7AE
  8
0
  2
*U195
 10
0.0
 20
0.0
 30
0.0
  0
POINT
  5
7AF
  8
DEFPOINTS
 62
     0
 10
1661.9966466058791
 20
5348.9616429038342
 30
0.0
  0
POINT
  5
7B0
  8
DEFPOINTS
 62
     0
 10
2307.9966466058499
 20
5361.3261758439958
 30
0.0
  0
POINT
  5
7B1
  8
DEFPOINTS
 62
     0
 10
2307.9966466058499
 20
5435.2558998631912
 30
0.0
  0
ENDBLK
  5
700
  8
0
  0
BLOCK
  8
0
  2
*D66
 70
     1
 10
0.0
 20
0.0
 30
0.0
  3
*D66
  1

  0
LINE
  5
7DE
  8
\U+6807\U+6CE8
 62
     0
 10
1672.8281404419211
 20
5399.0587933393163
 30
0.0
 11
1582.7650957893461
 21
5399.0587933393163
 31
0.0
  0
LINE
  5
7DF
  8
\U+6807\U+6CE8
 62
     0
 10
1631.9966466058941
 20
5379.0587933393153
 30
0.0
 11
1582.7650957893461
 21
5379.0587933393153
 31
0.0
  0
LINE
  5
7E0
  8
\U+6807\U+6CE8
 62
     0
 10
1592.7650957893461
 20
5367.0587933393163
 30
0.0
 11
1592.7650957893461
 21
5355.0587933393153
 31
0.0
  0
LINE
  5
7E1
  8
\U+6807\U+6CE8
 62
     0
 10
1592.7650957893461
 20
5411.0587933393153
 30
0.0
 11
1592.7650957893461
 21
5459.7095869901405
 31
0.0
  0
LINE
  5
7E2
  8
\U+6807\U+6CE8
 62
     0
 10
1592.7650957893461
 20
5379.0587933393153
 30
0.0
 11
1592.7650957893461
 21
5399.0587933393163
 31
0.0
  0
SOLID
  5
7E3
  8
\U+6807\U+6CE8
 62
     0
 10
1590.7650957893461
 20
5367.0587933393163
 30
0.0
 11
1594.7650957893461
 21
5367.0587933393163
 31
0.0
 12
1592.7650957893461
 22
5379.0587933393153
 32
0.0
 13
1592.7650957893461
 23
5379.0587933393153
 33
0.0
  0
SOLID
  5
7E4
  8
\U+6807\U+6CE8
 62
     0
 10
1590.7650957893461
 20
5411.0587933393153
 30
0.0
 11
1594.7650957893461
 21
5411.0587933393153
 31
0.0
 12
1592.7650957893461
 22
5399.0587933393163
 32
0.0
 13
1592.7650957893461
 23
5399.0587933393163
 33
0.0
  0
INSERT
  5
7E5
  8
0
  2
*U199
 10
0.0
 20
0.0
 30
0.0
  0
POINT
  5
7E6
  8
DEFPOINTS
 62
     0
 10
1677.8281404419211
 20
5399.0587933393163
 30
0.0
  0
POINT
  5
7E7
  8
DEFPOINTS
 62
     0
 10
1636.9966466058941
 20
5379.0587933393153
 30
0.0
  0
POINT
  5
7E8
  8
DEFPOINTS
 62
     0
 10
1592.7650957893461
 20
5379.0587933393153
 30
0.0
  0
ENDBLK
  5
70C
  8
0
  0
BLOCK
  8
0
  2
*D67
 70
     1
 10
0.0
 20
0.0
 30
0.0
  3
*D67
  1

  0
LINE
  5
7E9
  8
\U+6807\U+6CE8
 62
     0
 10
1641.996646605865
 20
5170.8587933393183
 30
0.0
 11
1641.996646605865
 21
5125.8215843229018
 31
0.0
  0
LINE
  5
7EA
  8
\U+6807\U+6CE8
 62
     0
 10
1661.9966466058791
 20
5170.8587933393183
 30
0.0
 11
1661.9966466058791
 21
5125.8215843229018
 31
0.0
  0
LINE
  5
7EB
  8
\U+6807\U+6CE8
 62
     0
 10
1629.996646605865
 20
5135.8215843229018
 30
0.0
 11
1617.996646605865
 21
5135.8215843229018
 31
0.0
  0
LINE
  5
7EC
  8
\U+6807\U+6CE8
 62
     0
 10
1673.9966466058791
 20
5135.8215843229018
 30
0.0
 11
1719.5077577169909
 21
5135.8215843229018
 31
0.0
  0
LINE
  5
7ED
  8
\U+6807\U+6CE8
 62
     0
 10
1641.996646605865
 20
5135.8215843229018
 30
0.0
 11
1661.9966466058791
 21
5135.8215843229018
 31
0.0
  0
SOLID
  5
7EE
  8
\U+6807\U+6CE8
 62
     0
 10
1629.996646605865
 20
5137.8215843229018
 30
0.0
 11
1629.996646605865
 21
5133.8215843229018
 31
0.0
 12
1641.996646605865
 22
5135.8215843229018
 32
0.0
 13
1641.996646605865
 23
5135.8215843229018
 33
0.0
  0
SOLID
  5
7EF
  8
\U+6807\U+6CE8
 62
     0
 10
1673.9966466058791
 20
5137.8215843229018
 30
0.0
 11
1673.9966466058791
 21
5133.8215843229018
 31
0.0
 12
1661.9966466058791
 22
5135.8215843229018
 32
0.0
 13
1661.9966466058791
 23
5135.8215843229018
 33
0.0
  0
INSERT
  5
7F0
  8
0
  2
*U200
 10
0.0
 20
0.0
 30
0.0
  0
POINT
  5
7F1
  8
DEFPOINTS
 62
     0
 10
1641.996646605865
 20
5175.8587933393192
 30
0.0
  0
POINT
  5
7F2
  8
DEFPOINTS
 62
     0
 10
1661.9966466058791
 20
5175.8587933393192
 30
0.0
  0
POINT
  5
7F3
  8
DEFPOINTS
 62
     0
 10
1661.9966466058791
 20
5135.8215843229018
 30
0.0
  0
ENDBLK
  5
71A
  8
0
  0
BLOCK
  8
0
  2
*D68
 70
     1
 10
0.0
 20
0.0
 30
0.0
  3
*D68
  1

  0
LINE
  5
808
  8
\U+6807\U+6CE8
 62
     0
 10
1641.346646605871
 20
5399.0587933393163
 30
0.0
 11
1530.8288296499049
 21
5399.0587933393163
 31
0.0
  0
LINE
  5
809
  8
\U+6807\U+6CE8
 62
     0
 10
1641.346646605871
 20
4952.6587933393212
 30
0.0
 11
1530.8288296499049
 21
4952.6587933393212
 31
0.0
  0
LINE
  5
80A
  8
\U+6807\U+6CE8
 62
     0
 10
1543.3288296499049
 20
5384.0587933393153
 30
0.0
 11
1543.3288296499049
 21
4967.6587933393212
 31
0.0
  0
SOLID
  5
80B
  8
\U+6807\U+6CE8
 62
     0
 10
1540.8288296499049
 20
5384.0587933393153
 30
0.0
 11
1545.8288296499049
 21
5384.0587933393153
 31
0.0
 12
1543.3288296499049
 22
5399.0587933393163
 32
0.0
 13
1543.3288296499049
 23
5399.0587933393163
 33
0.0
  0
SOLID
  5
80C
  8
\U+6807\U+6CE8
 62
     0
 10
1540.8288296499049
 20
4967.6587933393212
 30
0.0
 11
1545.8288296499049
 21
4967.6587933393212
 31
0.0
 12
1543.3288296499049
 22
4952.6587933393212
 32
0.0
 13
1543.3288296499049
 23
4952.6587933393212
 33
0.0
  0
INSERT
  5
80D
  8
0
  2
*U202
 10
0.0
 20
0.0
 30
0.0
  0
POINT
  5
80E
  8
DEFPOINTS
 62
     0
 10
1647.596646605871
 20
5399.0587933393163
 30
0.0
  0
POINT
  5
80F
  8
DEFPOINTS
 62
     0
 10
1647.596646605871
 20
4952.6587933393212
 30
0.0
  0
POINT
  5
810
  8
DEFPOINTS
 62
     0
 10
1543.3288296499049
 20
4952.6587933393212
 30
0.0
  0
ENDBLK
  5
728
  8
0
  0
BLOCK
  8
0
  2
*D69
 70
     1
 10
0.0
 20
0.0
 30
0.0
  3
*D69
  1

  0
LINE
  5
85F
  8
\U+6807\U+6CE8
 62
     0
 10
4340.2487497136126
 20
5132.9567457057901
 30
0.0
 11
4340.2487497136126
 21
5098.6479591117068
 31
0.0
  0
LINE
  5
860
  8
\U+6807\U+6CE8
 62
     0
 10
4360.2487497136144
 20
5176.3887157928893
 30
0.0
 11
4360.2487497136144
 21
5098.6479591117068
 31
0.0
  0
LINE
  5
861
  8
\U+6807\U+6CE8
 62
     0
 10
4328.2487497136144
 20
5108.6479591117059
 30
0.0
 11
4316.2487497136126
 21
5108.6479591117059
 31
0.0
  0
LINE
  5
862
  8
\U+6807\U+6CE8
 62
     0
 10
4372.2487497136126
 20
5108.6479591117059
 30
0.0
 11
4417.7598608247235
 21
5108.6479591117059
 31
0.0
  0
LINE
  5
863
  8
\U+6807\U+6CE8
 62
     0
 10
4340.2487497136126
 20
5108.6479591117059
 30
0.0
 11
4360.2487497136144
 21
5108.6479591117059
 31
0.0
  0
SOLID
  5
864
  8
\U+6807\U+6CE8
 62
     0
 10
4328.2487497136144
 20
5110.6479591117068
 30
0.0
 11
4328.2487497136144
 21
5106.6479591117068
 31
0.0
 12
4340.2487497136126
 22
5108.6479591117059
 32
0.0
 13
4340.2487497136126
 23
5108.6479591117059
 33
0.0
  0
SOLID
  5
865
  8
\U+6807\U+6CE8
 62
     0
 10
4372.2487497136126
 20
5110.6479591117068
 30
0.0
 11
4372.2487497136126
 21
5106.6479591117068
 31
0.0
 12
4360.2487497136144
 22
5108.6479591117059
 32
0.0
 13
4360.2487497136144
 23
5108.6479591117059
 33
0.0
  0
INSERT
  5
866
  8
0
  2
*U208
 10
0.0
 20
0.0
 30
0.0
  0
POINT
  5
867
  8
DEFPOINTS
 62
     0
 10
4340.2487497136126
 20
5137.9567457057901
 30
0.0
  0
POINT
  5
868
  8
DEFPOINTS
 62
     0
 10
4360.2487497136144
 20
5181.3887157928893
 30
0.0
  0
POINT
  5
869
  8
DEFPOINTS
 62
     0
 10
4360.2487497136144
 20
5108.6479591117059
 30
0.0
  0
ENDBLK
  5
734
  8
0
  0
BLOCK
  8
0
  2
*D70
 70
     1
 10
0.0
 20
0.0
 30
0.0
  3
*D70
  1

  0
LINE
  5
8D8
  8
\U+6807\U+6CE8
 62
     0
 10
8109.8619788187016
 20
5665.1136627892602
 30
0.0
 11
8287.6613054650334
 21
5665.1136627892602
 31
0.0
  0
LINE
  5
8D9
  8
\U+6807\U+6CE8
 62
     0
 10
8193.6901771966204
 20
5595.1136627892602
 30
0.0
 11
8287.6613054650334
 21
5595.1136627892602
 31
0.0
  0
LINE
  5
8DA
  8
\U+6807\U+6CE8
 62
     0
 10
8277.6613054650352
 20
5607.1136627892593
 30
0.0
 11
8277.6613054650352
 21
5653.1136627892602
 31
0.0
  0
LINE
  5
8DB
  8
\U+6807\U+6CE8
 62
     0
 10
8277.6613054650352
 20
5665.1136627892602
 30
0.0
 11
8277.6613054650352
 21
5738.9748858130361
 31
0.0
  0
SOLID
  5
8DC
  8
\U+6807\U+6CE8
 62
     0
 10
8275.6613054650352
 20
5607.1136627892593
 30
0.0
 11
8279.6613054650352
 21
5607.1136627892593
 31
0.0
 12
8277.6613054650352
 22
5595.1136627892602
 32
0.0
 13
8277.6613054650352
 23
5595.1136627892602
 33
0.0
  0
SOLID
  5
8DD
  8
\U+6807\U+6CE8
 62
     0
 10
8275.6613054650352
 20
5653.1136627892602
 30
0.0
 11
8279.6613054650352
 21
5653.1136627892602
 31
0.0
 12
8277.6613054650352
 22
5665.1136627892602
 32
0.0
 13
8277.6613054650352
 23
5665.1136627892602
 33
0.0
  0
INSERT
  5
8DE
  8
0
  2
*U218
 10
0.0
 20
0.0
 30
0.0
  0
POINT
  5
8DF
  8
DEFPOINTS
 62
     0
 10
8104.8619788187016
 20
5665.1136627892602
 30
0.0
  0
POINT
  5
8E0
  8
DEFPOINTS
 62
     0
 10
8188.6901771966186
 20
5595.1136627892602
 30
0.0
  0
POINT
  5
8E1
  8
DEFPOINTS
 62
     0
 10
8277.6613054650352
 20
5595.1136627892602
 30
0.0
  0
ENDBLK
  5
742
  8
0
  0
BLOCK
  8
0
  2
*D71
 70
     1
 10
0.0
 20
0.0
 30
0.0
  3
*D71
  1

  0
LINE
  5
8FA
  8
\U+6807\U+6CE8
 62
     0
 10
7706.3885112730022
 20
5405.1636627892558
 30
0.0
 11
7706.3885112730022
 21
5353.1423598318697
 31
0.0
  0
LINE
  5
8FB
  8
\U+6807\U+6CE8
 62
     0
 10
7726.3885112730004
 20
5345.672733163291
 30
0.0
 11
7726.3885112730004
 21
5373.1423598318697
 31
0.0
  0
LINE
  5
8FC
  8
\U+6807\U+6CE8
 62
     0
 10
7694.3885112730031
 20
5363.1423598318688
 30
0.0
 11
7682.3885112730031
 21
5363.1423598318688
 31
0.0
  0
LINE
  5
8FD
  8
\U+6807\U+6CE8
 62
     0
 10
7738.3885112730031
 20
5363.1423598318688
 30
0.0
 11
7783.8996223841123
 21
5363.1423598318688
 31
0.0
  0
LINE
  5
8FE
  8
\U+6807\U+6CE8
 62
     0
 10
7706.3885112730022
 20
5363.1423598318688
 30
0.0
 11
7726.3885112730004
 21
5363.1423598318688
 31
0.0
  0
SOLID
  5
8FF
  8
\U+6807\U+6CE8
 62
     0
 10
7694.3885112730031
 20
5365.1423598318697
 30
0.0
 11
7694.3885112730031
 21
5361.1423598318697
 31
0.0
 12
7706.3885112730022
 22
5363.1423598318688
 32
0.0
 13
7706.3885112730022
 23
5363.1423598318688
 33
0.0
  0
SOLID
  5
900
  8
\U+6807\U+6CE8
 62
     0
 10
7738.3885112730031
 20
5365.1423598318697
 30
0.0
 11
7738.3885112730031
 21
5361.1423598318697
 31
0.0
 12
7726.3885112730004
 22
5363.1423598318688
 32
0.0
 13
7726.3885112730004
 23
5363.1423598318688
 33
0.0
  0
INSERT
  5
901
  8
0
  2
*U221
 10
0.0
 20
0.0
 30
0.0
  0
POINT
  5
902
  8
DEFPOINTS
 62
     0
 10
7706.3885112730022
 20
5410.1636627892558
 30
0.0
  0
POINT
  5
903
  8
DEFPOINTS
 62
     0
 10
7726.3885112730004
 20
5340.672733163291
 30
0.0
  0
POINT
  5
904
  8
DEFPOINTS
 62
     0
 10
7726.3885112730004
 20
5363.1423598318688
 30
0.0
  0
ENDBLK
  5
74F
  8
0
  0
BLOCK
  8
0
  2
*D72
 70
     1
 10
0.0
 20
0.0
 30
0.0
  3
*D72
  1

  0
LINE
  5
91B
  8
\U+6807\U+6CE8
 62
     0
 10
8326.3885112730168
 20
5595.1136627892602
 30
0.0
 11
8237.7200037989805
 21
5595.1136627892602
 31
0.0
  0
LINE
  5
91C
  8
\U+6807\U+6CE8
 62
     0
 10
8326.3885112730168
 20
5575.1136627892602
 30
0.0
 11
8237.7200037989805
 21
5575.1136627892602
 31
0.0
  0
LINE
  5
91D
  8
\U+6807\U+6CE8
 62
     0
 10
8247.7200037989787
 20
5607.1136627892593
 30
0.0
 11
8247.7200037989787
 21
5619.1136627892602
 31
0.0
  0
LINE
  5
91E
  8
\U+6807\U+6CE8
 62
     0
 10
8247.7200037989787
 20
5563.1136627892602
 30
0.0
 11
8247.7200037989787
 21
5517.6025516781492
 31
0.0
  0
LINE
  5
91F
  8
\U+6807\U+6CE8
 62
     0
 10
8247.7200037989787
 20
5595.1136627892602
 30
0.0
 11
8247.7200037989787
 21
5575.1136627892602
 31
0.0
  0
SOLID
  5
920
  8
\U+6807\U+6CE8
 62
     0
 10
8245.7200037989787
 20
5607.1136627892593
 30
0.0
 11
8249.7200037989787
 21
5607.1136627892593
 31
0.0
 12
8247.7200037989787
 22
5595.1136627892602
 32
0.0
 13
8247.7200037989787
 23
5595.1136627892602
 33
0.0
  0
SOLID
  5
921
  8
\U+6807\U+6CE8
 62
     0
 10
8245.7200037989787
 20
5563.1136627892602
 30
0.0
 11
8249.7200037989787
 21
5563.1136627892602
 31
0.0
 12
8247.7200037989787
 22
5575.1136627892602
 32
0.0
 13
8247.7200037989787
 23
5575.1136627892602
 33
0.0
  0
INSERT
  5
922
  8
0
  2
*U223
 10
0.0
 20
0.0
 30
0.0
  0
POINT
  5
923
  8
DEFPOINTS
 62
     0
 10
8331.3885112730168
 20
5595.1136627892602
 30
0.0
  0
POINT
  5
924
  8
DEFPOINTS
 62
     0
 10
8331.3885112730168
 20
5575.1136627892602
 30
0.0
  0
POINT
  5
925
  8
DEFPOINTS
 62
     0
 10
8247.7200037989787
 20
5575.1136627892602
 30
0.0
  0
ENDBLK
  5
75D
  8
0
  0
BLOCK
  8
0
  2
*D73
 70
     1
 10
0.0
 20
0.0
 30
0.0
  3
*D73
  1

  0
LINE
  5
926
  8
\U+6807\U+6CE8
 62
     0
 10
7926.3885112730168
 20
5665.1136627892602
 30
0.0
 11
8045.29971330224
 21
5665.1136627892602
 31
0.0
  0
LINE
  5
927
  8
\U+6807\U+6CE8
 62
     0
 10
7931.3885112730168
 20
5645.1136627892602
 30
0.0
 11
8045.29971330224
 21
5645.1136627892602
 31
0.0
  0
LINE
  5
928
  8
\U+6807\U+6CE8
 62
     0
 10
8035.2997133022418
 20
5677.1136627892602
 30
0.0
 11
8035.2997133022418
 21
5689.1136627892602
 31
0.0
  0
LINE
  5
929
  8
\U+6807\U+6CE8
 62
     0
 10
8035.2997133022418
 20
5633.1136627892602
 30
0.0
 11
8035.2997133022418
 21
5587.6025516781492
 31
0.0
  0
LINE
  5
92A
  8
\U+6807\U+6CE8
 62
     0
 10
8035.2997133022418
 20
5665.1136627892602
 30
0.0
 11
8035.2997133022418
 21
5645.1136627892602
 31
0.0
  0
SOLID
  5
92B
  8
\U+6807\U+6CE8
 62
     0
 10
8033.2997133022391
 20
5677.1136627892602
 30
0.0
 11
8037.2997133022391
 21
5677.1136627892602
 31
0.0
 12
8035.2997133022418
 22
5665.1136627892602
 32
0.0
 13
8035.2997133022418
 23
5665.1136627892602
 33
0.0
  0
SOLID
  5
92C
  8
\U+6807\U+6CE8
 62
     0
 10
8033.2997133022391
 20
5633.1136627892602
 30
0.0
 11
8037.2997133022391
 21
5633.1136627892602
 31
0.0
 12
8035.2997133022418
 22
5645.1136627892602
 32
0.0
 13
8035.2997133022418
 23
5645.1136627892602
 33
0.0
  0
INSERT
  5
92D
  8
0
  2
*U224
 10
0.0
 20
0.0
 30
0.0
  0
POINT
  5
92E
  8
DEFPOINTS
 62
     0
 10
7921.3885112730177
 20
5665.1136627892602
 30
0.0
  0
POINT
  5
92F
  8
DEFPOINTS
 62
     0
 10
7926.3885112730168
 20
5645.1136627892602
 30
0.0
  0
POINT
  5
930
  8
DEFPOINTS
 62
     0
 10
8035.2997133022418
 20
5645.1136627892602
 30
0.0
  0
ENDBLK
  5
76B
  8
0
  0
BLOCK
  8
0
  2
*D74
 70
     1
 10
0.0
 20
0.0
 30
0.0
  3
*D74
  1

  0
LINE
  5
969
  8
\U+6807\U+6CE8
 62
     0
 10
1810.3848976316619
 20
2045.3386482857211
 30
0.0
 11
1810.3848976316619
 21
2241.1507244999061
 31
0.0
  0
LINE
  5
96A
  8
\U+6807\U+6CE8
 62
     0
 10
2456.3848976316481
 20
2057.7031812258911
 30
0.0
 11
2456.3848976316481
 21
2241.1507244999061
 31
0.0
  0
LINE
  5
96B
  8
\U+6807\U+6CE8
 62
     0
 10
1825.3848976316619
 20
2228.6507244999061
 30
0.0
 11
2441.3848976316481
 21
2228.6507244999061
 31
0.0
  0
SOLID
  5
96C
  8
\U+6807\U+6CE8
 62
     0
 10
1825.3848976316619
 20
2231.1507244999061
 30
0.0
 11
1825.3848976316619
 21
2226.1507244999052
 31
0.0
 12
1810.3848976316619
 22
2228.6507244999061
 32
0.0
 13
1810.3848976316619
 23
2228.6507244999061
 33
0.0
  0
SOLID
  5
96D
  8
\U+6807\U+6CE8
 62
     0
 10
2441.3848976316481
 20
2231.1507244999061
 30
0.0
 11
2441.3848976316481
 21
2226.1507244999052
 31
0.0
 12
2456.3848976316481
 22
2228.6507244999061
 32
0.0
 13
2456.3848976316481
 23
2228.6507244999061
 33
0.0
  0
INSERT
  5
96E
  8
0
  2
*U229
 10
0.0
 20
0.0
 30
0.0
  0
POINT
  5
96F
  8
DEFPOINTS
 62
     0
 10
1810.3848976316619
 20
2039.0886482857211
 30
0.0
  0
POINT
  5
970
  8
DEFPOINTS
 62
     0
 10
2456.3848976316481
 20
2051.4531812258911
 30
0.0
  0
POINT
  5
971
  8
DEFPOINTS
 62
     0
 10
2456.3848976316481
 20
2228.6507244999061
 30
0.0
  0
ENDBLK
  5
779
  8
0
  0
BLOCK
  8
0
  2
*D75
 70
     1
 10
0.0
 20
0.0
 30
0.0
  3
*D75
  1

  0
LINE
  5
99E
  8
\U+6807\U+6CE8
 62
     0
 10
1780.384897631691
 20
2145.385798721215
 30
0.0
 11
1743.223459302226
 21
2145.385798721215
 31
0.0
  0
LINE
  5
99F
  8
\U+6807\U+6CE8
 62
     0
 10
1780.384897631691
 20
2069.1857987212179
 30
0.0
 11
1743.223459302226
 21
2069.1857987212179
 31
0.0
  0
LINE
  5
9A0
  8
\U+6807\U+6CE8
 62
     0
 10
1753.223459302226
 20
2133.385798721215
 30
0.0
 11
1753.223459302226
 21
2081.1857987212179
 31
0.0
  0
SOLID
  5
9A1
  8
\U+6807\U+6CE8
 62
     0
 10
1751.223459302226
 20
2133.385798721215
 30
0.0
 11
1755.223459302226
 21
2133.385798721215
 31
0.0
 12
1753.223459302226
 22
2145.385798721215
 32
0.0
 13
1753.223459302226
 23
2145.385798721215
 33
0.0
  0
SOLID
  5
9A2
  8
\U+6807\U+6CE8
 62
     0
 10
1751.223459302226
 20
2081.1857987212179
 30
0.0
 11
1755.223459302226
 21
2081.1857987212179
 31
0.0
 12
1753.223459302226
 22
2069.1857987212179
 32
0.0
 13
1753.223459302226
 23
2069.1857987212179
 33
0.0
  0
INSERT
  5
9A3
  8
0
  2
*U232
 10
0.0
 20
0.0
 30
0.0
  0
POINT
  5
9A4
  8
DEFPOINTS
 62
     0
 10
1785.384897631691
 20
2145.385798721215
 30
0.0
  0
POINT
  5
9A5
  8
DEFPOINTS
 62
     0
 10
1785.384897631691
 20
2069.1857987212179
 30
0.0
  0
POINT
  5
9A6
  8
DEFPOINTS
 62
     0
 10
1753.223459302226
 20
2069.1857987212179
 30
0.0
  0
ENDBLK
  5
785
  8
0
  0
BLOCK
  8
0
  2
*D76
 70
     1
 10
0.0
 20
0.0
 30
0.0
  3
*D76
  1

  0
LINE
  5
9A7
  8
\U+6807\U+6CE8
 62
     0
 10
1776.804178466944
 20
1662.7857987212089
 30
0.0
 11
1743.223459302226
 21
1662.7857987212089
 31
0.0
  0
LINE
  5
9A8
  8
\U+6807\U+6CE8
 62
     0
 10
1811.3348976316449
 20
1632.7857987212089
 30
0.0
 11
1743.223459302226
 21
1632.7857987212089
 31
0.0
  0
LINE
  5
9A9
  8
\U+6807\U+6CE8
 62
     0
 10
1753.223459302226
 20
1674.7857987212089
 30
0.0
 11
1753.223459302226
 21
1686.7857987212089
 31
0.0
  0
LINE
  5
9AA
  8
\U+6807\U+6CE8
 62
     0
 10
1753.223459302226
 20
1620.7857987212089
 30
0.0
 11
1753.223459302226
 21
1575.4791320545421
 31
0.0
  0
LINE
  5
9AB
  8
\U+6807\U+6CE8
 62
     0
 10
1753.223459302226
 20
1662.7857987212089
 30
0.0
 11
1753.223459302226
 21
1632.7857987212089
 31
0.0
  0
SOLID
  5
9AC
  8
\U+6807\U+6CE8
 62
     0
 10
1751.223459302226
 20
1674.7857987212089
 30
0.0
 11
1755.223459302226
 21
1674.7857987212089
 31
0.0
 12
1753.223459302226
 22
1662.7857987212089
 32
0.0
 13
1753.223459302226
 23
1662.7857987212089
 33
0.0
  0
SOLID
  5
9AD
  8
\U+6807\U+6CE8
 62
     0
 10
1751.223459302226
 20
1620.7857987212089
 30
0.0
 11
1755.223459302226
 21
1620.7857987212089
 31
0.0
 12
1753.223459302226
 22
1632.7857987212089
 32
0.0
 13
1753.223459302226
 23
1632.7857987212089
 33
0.0
  0
INSERT
  5
9AE
  8
0
  2
*U233
 10
0.0
 20
0.0
 30
0.0
  0
POINT
  5
9AF
  8
DEFPOINTS
 62
     0
 10
1781.804178466944
 20
1662.7857987212089
 30
0.0
  0
POINT
  5
9B0
  8
DEFPOINTS
 62
     0
 10
1816.3348976316449
 20
1632.7857987212089
 30
0.0
  0
POINT
  5
9B1
  8
DEFPOINTS
 62
     0
 10
1753.223459302226
 20
1632.7857987212089
 30
0.0
  0
ENDBLK
  5
791
  8
0
  0
BLOCK
  8
0
  2
*D77
 70
     1
 10
0.0
 20
0.0
 30
0.0
  3
*D77
  1

  0
LINE
  5
9CC
  8
\U+6807\U+6CE8
 62
     0
 10
1779.134897631691
 20
2145.385798721215
 30
0.0
 11
1686.8574343655309
 21
2145.385798721215
 31
0.0
  0
LINE
  5
9CD
  8
\U+6807\U+6CE8
 62
     0
 10
1779.134897631691
 20
1632.7857987212089
 30
0.0
 11
1686.8574343655309
 21
1632.7857987212089
 31
0.0
  0
LINE
  5
9CE
  8
\U+6807\U+6CE8
 62
     0
 10
1699.3574343655309
 20
2130.385798721215
 30
0.0
 11
1699.3574343655309
 21
1647.7857987212089
 31
0.0
  0
SOLID
  5
9CF
  8
\U+6807\U+6CE8
 62
     0
 10
1696.8574343655309
 20
2130.385798721215
 30
0.0
 11
1701.8574343655309
 21
2130.385798721215
 31
0.0
 12
1699.3574343655309
 22
2145.385798721215
 32
0.0
 13
1699.3574343655309
 23
2145.385798721215
 33
0.0
  0
SOLID
  5
9D0
  8
\U+6807\U+6CE8
 62
     0
 10
1696.8574343655309
 20
1647.7857987212089
 30
0.0
 11
1701.8574343655309
 21
1647.7857987212089
 31
0.0
 12
1699.3574343655309
 22
1632.7857987212089
 32
0.0
 13
1699.3574343655309
 23
1632.7857987212089
 33
0.0
  0
INSERT
  5
9D1
  8
0
  2
*U236
 10
0.0
 20
0.0
 30
0.0
  0
POINT
  5
9D2
  8
DEFPOINTS
 62
     0
 10
1785.384897631691
 20
2145.385798721215
 30
0.0
  0
POINT
  5
9D3
  8
DEFPOINTS
 62
     0
 10
1785.384897631691
 20
1632.7857987212089
 30
0.0
  0
POINT
  5
9D4
  8
DEFPOINTS
 62
     0
 10
1699.3574343655309
 20
1632.7857987212089
 30
0.0
  0
ENDBLK
  5
79F
  8
0
  0
BLOCK
  8
0
  2
*D78
 70
     1
 10
0.0
 20
0.0
 30
0.0
  3
*D78
  1

  0
LINE
  5
7B5
  8
\U+6807\U+6CE8
 62
     0
 10
1670.74664660588
 20
5379.0587933393153
 30
0.0
 11
1580.2650957893461
 21
5379.0587933393153
 31
0.0
  0
LINE
  5
7B6
  8
\U+6807\U+6CE8
 62
     0
 10
1670.74664660588
 20
4972.6587933393212
 30
0.0
 11
1580.2650957893461
 21
4972.6587933393212
 31
0.0
  0
LINE
  5
7B7
  8
\U+6807\U+6CE8
 62
     0
 10
1592.7650957893461
 20
5364.0587933393163
 30
0.0
 11
1592.7650957893461
 21
4987.6587933393212
 31
0.0
  0
SOLID
  5
7B8
  8
\U+6807\U+6CE8
 62
     0
 10
1590.2650957893461
 20
5364.0587933393163
 30
0.0
 11
1595.265095789345
 21
5364.0587933393163
 31
0.0
 12
1592.7650957893461
 22
5379.0587933393153
 32
0.0
 13
1592.7650957893461
 23
5379.0587933393153
 33
0.0
  0
SOLID
  5
7B9
  8
\U+6807\U+6CE8
 62
     0
 10
1590.2650957893461
 20
4987.6587933393212
 30
0.0
 11
1595.265095789345
 21
4987.6587933393212
 31
0.0
 12
1592.7650957893461
 22
4972.6587933393212
 32
0.0
 13
1592.7650957893461
 23
4972.6587933393212
 33
0.0
  0
INSERT
  5
7BA
  8
0
  2
*U196
 10
0.0
 20
0.0
 30
0.0
  0
POINT
  5
7BB
  8
DEFPOINTS
 62
     0
 10
1676.99664660588
 20
5379.0587933393153
 30
0.0
  0
POINT
  5
7BC
  8
DEFPOINTS
 62
     0
 10
1676.99664660588
 20
4972.6587933393212
 30
0.0
  0
POINT
  5
7BD
  8
DEFPOINTS
 62
     0
 10
1592.7650957893461
 20
4972.6587933393212
 30
0.0
  0
ENDBLK
  5
7B4
  8
0
  0
BLOCK
  8
0
  2
*D79
 70
     1
 10
0.0
 20
0.0
 30
0.0
  3
*D79
  1

  0
LINE
  5
7C1
  8
\U+6807\U+6CE8
 62
     0
 10
1635.746646605865
 20
4782.5204192576966
 30
0.0
 11
1568.2235654960059
 21
4782.5204192576966
 31
0.0
  0
LINE
  5
7C2
  8
\U+6807\U+6CE8
 62
     0
 10
1683.839012575871
 20
4553.920419257699
 30
0.0
 11
1568.2235654960059
 21
4553.920419257699
 31
0.0
  0
LINE
  5
7C3
  8
\U+6807\U+6CE8
 62
     0
 10
1580.7235654960059
 20
4767.5204192576984
 30
0.0
 11
1580.7235654960059
 21
4568.920419257699
 31
0.0
  0
SOLID
  5
7C4
  8
\U+6807\U+6CE8
 62
     0
 10
1578.2235654960059
 20
4767.5204192576984
 30
0.0
 11
1583.2235654960059
 21
4767.5204192576984
 31
0.0
 12
1580.7235654960059
 22
4782.5204192576966
 32
0.0
 13
1580.7235654960059
 23
4782.5204192576966
 33
0.0
  0
SOLID
  5
7C5
  8
\U+6807\U+6CE8
 62
     0
 10
1578.2235654960059
 20
4568.920419257699
 30
0.0
 11
1583.2235654960059
 21
4568.920419257699
 31
0.0
 12
1580.7235654960059
 22
4553.920419257699
 32
0.0
 13
1580.7235654960059
 23
4553.920419257699
 33
0.0
  0
INSERT
  5
7C6
  8
0
  2
*U197
 10
0.0
 20
0.0
 30
0.0
  0
POINT
  5
7C7
  8
DEFPOINTS
 62
     0
 10
1641.996646605865
 20
4782.5204192576966
 30
0.0
  0
POINT
  5
7C8
  8
DEFPOINTS
 62
     0
 10
1690.0890125758699
 20
4553.920419257699
 30
0.0
  0
POINT
  5
7C9
  8
DEFPOINTS
 62
     0
 10
1580.7235654960059
 20
4553.920419257699
 30
0.0
  0
ENDBLK
  5
7C0
  8
0
  0
BLOCK
  8
0
  2
*D80
 70
     1
 10
0.0
 20
0.0
 30
0.0
  3
*D80
  1

  0
LINE
  5
7CD
  8
\U+6807\U+6CE8
 62
     0
 10
1979.996646605865
 20
5379.0587933393153
 30
0.0
 11
1867.4102706642991
 21
5379.0587933393153
 31
0.0
  0
LINE
  5
7CE
  8
\U+6807\U+6CE8
 62
     0
 10
1979.996646605865
 20
5259.0587933393153
 30
0.0
 11
1867.4102706642991
 21
5259.0587933393153
 31
0.0
  0
LINE
  5
7CF
  8
\U+6807\U+6CE8
 62
     0
 10
1877.4102706642991
 20
5367.0587933393163
 30
0.0
 11
1877.4102706642991
 21
5271.0587933393163
 31
0.0
  0
SOLID
  5
7D0
  8
\U+6807\U+6CE8
 62
     0
 10
1875.4102706642991
 20
5367.0587933393163
 30
0.0
 11
1879.4102706642991
 21
5367.0587933393163
 31
0.0
 12
1877.4102706642991
 22
5379.0587933393153
 32
0.0
 13
1877.4102706642991
 23
5379.0587933393153
 33
0.0
  0
SOLID
  5
7D1
  8
\U+6807\U+6CE8
 62
     0
 10
1875.4102706642991
 20
5271.0587933393163
 30
0.0
 11
1879.4102706642991
 21
5271.0587933393163
 31
0.0
 12
1877.4102706642991
 22
5259.0587933393153
 32
0.0
 13
1877.4102706642991
 23
5259.0587933393153
 33
0.0
  0
INSERT
  5
7D2
  8
0
  2
*U198
 10
0.0
 20
0.0
 30
0.0
  0
POINT
  5
7D3
  8
DEFPOINTS
 62
     0
 10
1984.996646605865
 20
5379.0587933393153
 30
0.0
  0
POINT
  5
7D4
  8
DEFPOINTS
 62
     0
 10
1984.996646605865
 20
5259.0587933393153
 30
0.0
  0
POINT
  5
7D5
  8
DEFPOINTS
 62
     0
 10
1877.4102706642991
 20
5259.0587933393153
 30
0.0
  0
ENDBLK
  5
7CC
  8
0
  0
BLOCK
  8
0
  2
*D81
 70
     1
 10
0.0
 20
0.0
 30
0.0
  3
*D81
  1

  0
LINE
  5
A75
  8
\U+6807\U+6CE8
 62
     0
 10
1716.0927129771501
 20
5317.1602615051897
 30
0.0
 11
1675.075688735498
 21
5366.3631198917783
 31
0.0
  0
INSERT
  5
A76
  8
0
  2
*U245
 10
0.0
 20
0.0
 30
0.0
  0
SOLID
  5
A77
  8
\U+6807\U+6CE8
 62
     0
 10
1676.6119064371251
 20
5367.6437584720197
 30
0.0
 11
1673.5394710338701
 21
5365.0824813115341
 31
0.0
 12
1667.3918572540399
 22
5375.5804261015419
 32
0.0
 13
1667.3918572540399
 23
5375.5804261015419
 33
0.0
  0
POINT
  5
A78
  8
DEFPOINTS
 62
     0
 10
1667.3918572540399
 20
5375.5804261015419
 30
0.0
  0
POINT
  5
A79
  8
DEFPOINTS
 62
     0
 10
1676.9966466058791
 20
5364.0587933393163
 30
0.0
  0
ENDBLK
  5
7D8
  8
0
  0
BLOCK
  8
0
  2
*D82
 70
     1
 10
0.0
 20
0.0
 30
0.0
  3
*D82
  1

  0
LINE
  5
A7A
  8
\U+6807\U+6CE8
 62
     0
 10
1731.9243282999739
 20
4613.3926696186109
 30
0.0
 11
1688.033463604849
 21
4566.7353063480377
 31
0.0
  0
INSERT
  5
A7B
  8
0
  2
*U246
 10
0.0
 20
0.0
 30
0.0
  0
SOLID
  5
A7C
  8
\U+6807\U+6CE8
 62
     0
 10
1686.576721665095
 20
4568.1056723287029
 30
0.0
 11
1689.490205544603
 21
4565.3649403673771
 31
0.0
 12
1679.8112677208651
 22
4557.9948547095146
 32
0.0
 13
1679.8112677208651
 23
4557.9948547095146
 33
0.0
  0
POINT
  5
A7D
  8
DEFPOINTS
 62
     0
 10
1679.8112677208651
 20
4557.9948547095146
 30
0.0
  0
POINT
  5
A7E
  8
DEFPOINTS
 62
     0
 10
1690.0890125758699
 20
4568.920419257699
 30
0.0
  0
ENDBLK
  5
7F6
  8
0
  0
BLOCK
  8
0
  2
*D83
 70
     1
 10
0.0
 20
0.0
 30
0.0
  3
*D83
  1

  0
LINE
  5
7FF
  8
\U+6807\U+6CE8
 62
     0
 10
1641.996646605865
 20
5400.3087933393153
 30
0.0
 11
1641.996646605865
 21
5498.9415288148057
 31
0.0
  0
LINE
  5
800
  8
\U+6807\U+6CE8
 62
     0
 10
2327.9966466058499
 20
5400.3087933393153
 30
0.0
 11
2327.9966466058499
 21
5498.9415288148057
 31
0.0
  0
LINE
  5
801
  8
\U+6807\U+6CE8
 62
     0
 10
1656.996646605865
 20
5486.4415288148057
 30
0.0
 11
2312.9966466058509
 21
5486.4415288148057
 31
0.0
  0
SOLID
  5
802
  8
\U+6807\U+6CE8
 62
     0
 10
1656.996646605865
 20
5488.9415288148048
 30
0.0
 11
1656.996646605865
 21
5483.9415288148057
 31
0.0
 12
1641.996646605865
 22
5486.4415288148057
 32
0.0
 13
1641.996646605865
 23
5486.4415288148057
 33
0.0
  0
SOLID
  5
803
  8
\U+6807\U+6CE8
 62
     0
 10
2312.9966466058509
 20
5488.9415288148048
 30
0.0
 11
2312.9966466058509
 21
5483.9415288148057
 31
0.0
 12
2327.9966466058499
 22
5486.4415288148057
 32
0.0
 13
2327.9966466058499
 23
5486.4415288148057
 33
0.0
  0
INSERT
  5
804
  8
0
  2
*U201
 10
0.0
 20
0.0
 30
0.0
  0
POINT
  5
805
  8
DEFPOINTS
 62
     0
 10
1641.996646605865
 20
5394.0587933393153
 30
0.0
  0
POINT
  5
806
  8
DEFPOINTS
 62
     0
 10
2327.9966466058499
 20
5394.0587933393153
 30
0.0
  0
POINT
  5
807
  8
DEFPOINTS
 62
     0
 10
2327.9966466058499
 20
5486.4415288148057
 30
0.0
  0
ENDBLK
  5
7FE
  8
0
  0
BLOCK
  8
0
  2
*D84
 70
     1
 10
0.0
 20
0.0
 30
0.0
  3
*D84
  1

  0
LINE
  5
814
  8
\U+6807\U+6CE8
 62
     0
 10
4360.2487497136144
 20
5426.6651624210772
 30
0.0
 11
4360.2487497136144
 21
5497.8805794313294
 31
0.0
  0
LINE
  5
815
  8
\U+6807\U+6CE8
 62
     0
 10
4906.3487497136484
 20
5426.6651624210772
 30
0.0
 11
4906.3487497136484
 21
5497.8805794313294
 31
0.0
  0
LINE
  5
816
  8
\U+6807\U+6CE8
 62
     0
 10
4372.2487497136126
 20
5487.8805794313294
 30
0.0
 11
4894.3487497136502
 21
5487.8805794313294
 31
0.0
  0
SOLID
  5
817
  8
\U+6807\U+6CE8
 62
     0
 10
4372.2487497136126
 20
5489.8805794313294
 30
0.0
 11
4372.2487497136126
 21
5485.8805794313266
 31
0.0
 12
4360.2487497136144
 22
5487.8805794313294
 32
0.0
 13
4360.2487497136144
 23
5487.8805794313294
 33
0.0
  0
SOLID
  5
818
  8
\U+6807\U+6CE8
 62
     0
 10
4894.3487497136502
 20
5489.8805794313294
 30
0.0
 11
4894.3487497136502
 21
5485.8805794313266
 31
0.0
 12
4906.3487497136484
 22
5487.8805794313294
 32
0.0
 13
4906.3487497136484
 23
5487.8805794313294
 33
0.0
  0
INSERT
  5
819
  8
0
  2
*U203
 10
0.0
 20
0.0
 30
0.0
  0
POINT
  5
81A
  8
DEFPOINTS
 62
     0
 10
4360.2487497136144
 20
5421.6651624210763
 30
0.0
  0
POINT
  5
81B
  8
DEFPOINTS
 62
     0
 10
4906.3487497136484
 20
5421.6651624210763
 30
0.0
  0
POINT
  5
81C
  8
DEFPOINTS
 62
     0
 10
4906.3487497136484
 20
5487.8805794313294
 30
0.0
  0
ENDBLK
  5
813
  8
0
  0
BLOCK
  8
0
  2
*D85
 70
     1
 10
0.0
 20
0.0
 30
0.0
  3
*D85
  1

  0
LINE
  5
820
  8
\U+6807\U+6CE8
 62
     0
 10
4370.2487497136126
 20
5436.6651624210763
 30
0.0
 11
4303.7166229926761
 21
5436.6651624210763
 31
0.0
  0
LINE
  5
821
  8
\U+6807\U+6CE8
 62
     0
 10
4370.2487497136126
 20
5030.265162421073
 30
0.0
 11
4303.7166229926761
 21
5030.265162421073
 31
0.0
  0
LINE
  5
822
  8
\U+6807\U+6CE8
 62
     0
 10
4313.716622992677
 20
5424.6651624210763
 30
0.0
 11
4313.716622992677
 21
5042.2651624210748
 31
0.0
  0
SOLID
  5
823
  8
\U+6807\U+6CE8
 62
     0
 10
4311.716622992677
 20
5424.6651624210763
 30
0.0
 11
4315.716622992677
 21
5424.6651624210763
 31
0.0
 12
4313.716622992677
 22
5436.6651624210763
 32
0.0
 13
4313.716622992677
 23
5436.6651624210763
 33
0.0
  0
SOLID
  5
824
  8
\U+6807\U+6CE8
 62
     0
 10
4311.716622992677
 20
5042.2651624210748
 30
0.0
 11
4315.716622992677
 21
5042.2651624210748
 31
0.0
 12
4313.716622992677
 22
5030.265162421073
 32
0.0
 13
4313.716622992677
 23
5030.265162421073
 33
0.0
  0
INSERT
  5
825
  8
0
  2
*U204
 10
0.0
 20
0.0
 30
0.0
  0
POINT
  5
826
  8
DEFPOINTS
 62
     0
 10
4375.2487497136126
 20
5436.6651624210763
 30
0.0
  0
POINT
  5
827
  8
DEFPOINTS
 62
     0
 10
4375.2487497136126
 20
5030.265162421073
 30
0.0
  0
POINT
  5
828
  8
DEFPOINTS
 62
     0
 10
4313.716622992677
 20
5030.265162421073
 30
0.0
  0
ENDBLK
  5
81F
  8
0
  0
BLOCK
  8
0
  2
*D86
 70
     1
 10
0.0
 20
0.0
 30
0.0
  3
*D86
  1

  0
LINE
  5
82C
  8
\U+6807\U+6CE8
 62
     0
 10
4336.1987497136251
 20
4834.7643604043878
 30
0.0
 11
4292.4639132481207
 21
4834.7643604043878
 31
0.0
  0
LINE
  5
82D
  8
\U+6807\U+6CE8
 62
     0
 10
4383.3411156836328
 20
4606.1643604043893
 30
0.0
 11
4292.4639132481207
 21
4606.1643604043893
 31
0.0
  0
LINE
  5
82E
  8
\U+6807\U+6CE8
 62
     0
 10
4302.4639132481207
 20
4822.7643604043888
 30
0.0
 11
4302.4639132481207
 21
4618.1643604043893
 31
0.0
  0
SOLID
  5
82F
  8
\U+6807\U+6CE8
 62
     0
 10
4300.4639132481207
 20
4822.7643604043888
 30
0.0
 11
4304.4639132481188
 21
4822.7643604043888
 31
0.0
 12
4302.4639132481207
 22
4834.7643604043878
 32
0.0
 13
4302.4639132481207
 23
4834.7643604043878
 33
0.0
  0
SOLID
  5
830
  8
\U+6807\U+6CE8
 62
     0
 10
4300.4639132481207
 20
4618.1643604043893
 30
0.0
 11
4304.4639132481188
 21
4618.1643604043893
 31
0.0
 12
4302.4639132481207
 22
4606.1643604043893
 32
0.0
 13
4302.4639132481207
 23
4606.1643604043893
 33
0.0
  0
INSERT
  5
831
  8
0
  2
*U205
 10
0.0
 20
0.0
 30
0.0
  0
POINT
  5
832
  8
DEFPOINTS
 62
     0
 10
4341.1987497136251
 20
4834.7643604043878
 30
0.0
  0
POINT
  5
833
  8
DEFPOINTS
 62
     0
 10
4388.3411156836319
 20
4606.1643604043893
 30
0.0
  0
POINT
  5
834
  8
DEFPOINTS
 62
     0
 10
4302.4639132481207
 20
4606.1643604043893
 30
0.0
  0
ENDBLK
  5
82B
  8
0
  0
BLOCK
  8
0
  2
*D87
 70
     1
 10
0.0
 20
0.0
 30
0.0
  3
*D87
  1

  0
LINE
  5
838
  8
\U+6807\U+6CE8
 62
     0
 10
4628.298749713631
 20
5436.6651624210763
 30
0.0
 11
4523.231140119281
 21
5436.6651624210763
 31
0.0
  0
LINE
  5
839
  8
\U+6807\U+6CE8
 62
     0
 10
4628.298749713631
 20
5316.6651624210772
 30
0.0
 11
4523.231140119281
 21
5316.6651624210772
 31
0.0
  0
LINE
  5
83A
  8
\U+6807\U+6CE8
 62
     0
 10
4533.2311401192819
 20
5424.6651624210763
 30
0.0
 11
4533.2311401192819
 21
5328.6651624210763
 31
0.0
  0
SOLID
  5
83B
  8
\U+6807\U+6CE8
 62
     0
 10
4531.2311401192819
 20
5424.6651624210763
 30
0.0
 11
4535.231140119281
 21
5424.6651624210763
 31
0.0
 12
4533.2311401192819
 22
5436.6651624210763
 32
0.0
 13
4533.2311401192819
 23
5436.6651624210763
 33
0.0
  0
SOLID
  5
83C
  8
\U+6807\U+6CE8
 62
     0
 10
4531.2311401192819
 20
5328.6651624210763
 30
0.0
 11
4535.231140119281
 21
5328.6651624210763
 31
0.0
 12
4533.2311401192819
 22
5316.6651624210772
 32
0.0
 13
4533.2311401192819
 23
5316.6651624210772
 33
0.0
  0
INSERT
  5
83D
  8
0
  2
*U206
 10
0.0
 20
0.0
 30
0.0
  0
POINT
  5
83E
  8
DEFPOINTS
 62
     0
 10
4633.2987497136301
 20
5436.6651624210763
 30
0.0
  0
POINT
  5
83F
  8
DEFPOINTS
 62
     0
 10
4633.2987497136301
 20
5316.6651624210772
 30
0.0
  0
POINT
  5
840
  8
DEFPOINTS
 62
     0
 10
4533.2311401192819
 20
5316.6651624210772
 30
0.0
  0
ENDBLK
  5
837
  8
0
  0
BLOCK
  8
0
  2
*D88
 70
     1
 10
0.0
 20
0.0
 30
0.0
  3
*D88
  1

  0
LINE
  5
844
  8
\U+6807\U+6CE8
 62
     0
 10
4355.2487497136126
 20
5456.6651624210763
 30
0.0
 11
4280.2766229927038
 21
5456.6651624210763
 31
0.0
  0
LINE
  5
845
  8
\U+6807\U+6CE8
 62
     0
 10
4370.2487497136126
 20
5436.6651624210763
 30
0.0
 11
4280.2766229927038
 21
5436.6651624210763
 31
0.0
  0
LINE
  5
846
  8
\U+6807\U+6CE8
 62
     0
 10
4290.2766229927038
 20
5468.6651624210763
 30
0.0
 11
4290.2766229927038
 21
5480.6651624210763
 31
0.0
  0
LINE
  5
847
  8
\U+6807\U+6CE8
 62
     0
 10
4290.2766229927038
 20
5424.6651624210763
 30
0.0
 11
4290.2766229927038
 21
5376.0143687702794
 31
0.0
  0
LINE
  5
848
  8
\U+6807\U+6CE8
 62
     0
 10
4290.2766229927038
 20
5456.6651624210763
 30
0.0
 11
4290.2766229927038
 21
5436.6651624210763
 31
0.0
  0
SOLID
  5
849
  8
\U+6807\U+6CE8
 62
     0
 10
4288.2766229927047
 20
5468.6651624210763
 30
0.0
 11
4292.2766229927038
 21
5468.6651624210763
 31
0.0
 12
4290.2766229927038
 22
5456.6651624210763
 32
0.0
 13
4290.2766229927038
 23
5456.6651624210763
 33
0.0
  0
SOLID
  5
84A
  8
\U+6807\U+6CE8
 62
     0
 10
4288.2766229927047
 20
5424.6651624210763
 30
0.0
 11
4292.2766229927038
 21
5424.6651624210763
 31
0.0
 12
4290.2766229927038
 22
5436.6651624210763
 32
0.0
 13
4290.2766229927038
 23
5436.6651624210763
 33
0.0
  0
INSERT
  5
84B
  8
0
  2
*U207
 10
0.0
 20
0.0
 30
0.0
  0
POINT
  5
84C
  8
DEFPOINTS
 62
     0
 10
4360.2487497136144
 20
5456.6651624210763
 30
0.0
  0
POINT
  5
84D
  8
DEFPOINTS
 62
     0
 10
4375.2487497136126
 20
5436.6651624210763
 30
0.0
  0
POINT
  5
84E
  8
DEFPOINTS
 62
     0
 10
4290.2766229927038
 20
5436.6651624210763
 30
0.0
  0
ENDBLK
  5
843
  8
0
  0
BLOCK
  8
0
  2
*D89
 70
     1
 10
0.0
 20
0.0
 30
0.0
  3
*D89
  1

  0
LINE
  5
A7F
  8
\U+6807\U+6CE8
 62
     0
 10
4408.0802874622959
 20
5370.1863821037477
 30
0.0
 11
4373.6355950746874
 21
5424.194536278339
 31
0.0
  0
INSERT
  5
A80
  8
0
  2
*U247
 10
0.0
 20
0.0
 30
0.0
  0
SOLID
  5
A81
  8
\U+6807\U+6CE8
 62
     0
 10
4375.3218443129626
 20
5425.2699727043546
 30
0.0
 11
4371.9493458364077
 21
5423.1190998523189
 31
0.0
 12
4367.1829765185803
 22
5434.3120317080084
 32
0.0
 13
4367.1829765185803
 23
5434.3120317080084
 33
0.0
  0
POINT
  5
A82
  8
DEFPOINTS
 62
     0
 10
4367.1829765185803
 20
5434.3120317080084
 30
0.0
  0
POINT
  5
A83
  8
DEFPOINTS
 62
     0
 10
4375.2487497136126
 20
5421.6651624210735
 30
0.0
  0
ENDBLK
  5
851
  8
0
  0
BLOCK
  8
0
  2
*D90
 70
     1
 10
0.0
 20
0.0
 30
0.0
  3
*D90
  1

  0
LINE
  5
A84
  8
\U+6807\U+6CE8
 62
     0
 10
4436.7521780164316
 20
4658.3711304559811
 30
0.0
 11
4385.9624720031261
 21
4619.3362317868659
 31
0.0
  0
INSERT
  5
A85
  8
0
  2
*U248
 10
0.0
 20
0.0
 30
0.0
  0
SOLID
  5
A86
  8
\U+6807\U+6CE8
 62
     0
 10
4384.7437195915109
 20
4620.9219942404479
 30
0.0
 11
4387.1812244147377
 21
4617.7504693332858
 31
0.0
 12
4376.4478972816378
 22
4612.023717317189
 32
0.0
 13
4376.4478972816378
 23
4612.023717317189
 33
0.0
  0
POINT
  5
A87
  8
DEFPOINTS
 62
     0
 10
4376.4478972816378
 20
4612.023717317189
 30
0.0
  0
POINT
  5
A88
  8
DEFPOINTS
 62
     0
 10
4388.3411156836319
 20
4621.1643604043893
 30
0.0
  0
ENDBLK
  5
859
  8
0
  0
BLOCK
  8
0
  2
*D91
 70
     1
 10
0.0
 20
0.0
 30
0.0
  3
*D91
  1

  0
LINE
  5
86D
  8
\U+6807\U+6CE8
 62
     0
 10
4340.2487497136126
 20
5456.6651624210763
 30
0.0
 11
4340.2487497136126
 21
5549.2140629180112
 31
0.0
  0
LINE
  5
86E
  8
\U+6807\U+6CE8
 62
     0
 10
4926.3487497136502
 20
5456.6651624210763
 30
0.0
 11
4926.3487497136502
 21
5549.2140629180112
 31
0.0
  0
LINE
  5
86F
  8
\U+6807\U+6CE8
 62
     0
 10
4352.2487497136126
 20
5539.2140629180112
 30
0.0
 11
4914.3487497136484
 21
5539.2140629180112
 31
0.0
  0
SOLID
  5
870
  8
\U+6807\U+6CE8
 62
     0
 10
4352.2487497136126
 20
5541.2140629180121
 30
0.0
 11
4352.2487497136126
 21
5537.2140629180112
 31
0.0
 12
4340.2487497136126
 22
5539.2140629180112
 32
0.0
 13
4340.2487497136126
 23
5539.2140629180112
 33
0.0
  0
SOLID
  5
871
  8
\U+6807\U+6CE8
 62
     0
 10
4914.3487497136484
 20
5541.2140629180121
 30
0.0
 11
4914.3487497136484
 21
5537.2140629180112
 31
0.0
 12
4926.3487497136502
 22
5539.2140629180112
 32
0.0
 13
4926.3487497136502
 23
5539.2140629180112
 33
0.0
  0
INSERT
  5
872
  8
0
  2
*U209
 10
0.0
 20
0.0
 30
0.0
  0
POINT
  5
873
  8
DEFPOINTS
 62
     0
 10
4340.2487497136126
 20
5451.6651624210763
 30
0.0
  0
POINT
  5
874
  8
DEFPOINTS
 62
     0
 10
4926.3487497136502
 20
5451.6651624210763
 30
0.0
  0
POINT
  5
875
  8
DEFPOINTS
 62
     0
 10
4926.3487497136502
 20
5539.2140629180112
 30
0.0
  0
ENDBLK
  5
86C
  8
0
  0
BLOCK
  8
0
  2
*D92
 70
     1
 10
0.0
 20
0.0
 30
0.0
  3
*D92
  1

  0
LINE
  5
879
  8
\U+6807\U+6CE8
 62
     0
 10
4340.2487497136126
 20
5456.6651624210763
 30
0.0
 11
4241.6732388959617
 21
5456.6651624210763
 31
0.0
  0
LINE
  5
87A
  8
\U+6807\U+6CE8
 62
     0
 10
4340.2487497136126
 20
5010.2651624210748
 30
0.0
 11
4241.6732388959617
 21
5010.2651624210748
 31
0.0
  0
LINE
  5
87B
  8
\U+6807\U+6CE8
 62
     0
 10
4251.6732388959608
 20
5444.6651624210781
 30
0.0
 11
4251.6732388959608
 21
5022.2651624210739
 31
0.0
  0
SOLID
  5
87C
  8
\U+6807\U+6CE8
 62
     0
 10
4249.6732388959617
 20
5444.6651624210781
 30
0.0
 11
4253.673238895959
 21
5444.6651624210781
 31
0.0
 12
4251.6732388959608
 22
5456.6651624210763
 32
0.0
 13
4251.6732388959608
 23
5456.6651624210763
 33
0.0
  0
SOLID
  5
87D
  8
\U+6807\U+6CE8
 62
     0
 10
4249.6732388959617
 20
5022.2651624210739
 30
0.0
 11
4253.673238895959
 21
5022.2651624210739
 31
0.0
 12
4251.6732388959608
 22
5010.2651624210748
 32
0.0
 13
4251.6732388959608
 23
5010.2651624210748
 33
0.0
  0
INSERT
  5
87E
  8
0
  2
*U210
 10
0.0
 20
0.0
 30
0.0
  0
POINT
  5
87F
  8
DEFPOINTS
 62
     0
 10
4345.2487497136126
 20
5456.6651624210763
 30
0.0
  0
POINT
  5
880
  8
DEFPOINTS
 62
     0
 10
4345.2487497136126
 20
5010.2651624210748
 30
0.0
  0
POINT
  5
881
  8
DEFPOINTS
 62
     0
 10
4251.6732388959608
 20
5010.2651624210748
 30
0.0
  0
ENDBLK
  5
878
  8
0
  0
BLOCK
  8
0
  2
*D93
 70
     1
 10
0.0
 20
0.0
 30
0.0
  3
*D93
  1

  0
LINE
  5
885
  8
\U+6807\U+6CE8
 62
     0
 10
7712.3385112730139
 20
4865.5929414931643
 30
0.0
 11
7653.3024063035946
 21
4865.5929414931643
 31
0.0
  0
LINE
  5
886
  8
\U+6807\U+6CE8
 62
     0
 10
7749.4808772429933
 20
4636.9929414931657
 30
0.0
 11
7653.3024063035946
 21
4636.9929414931657
 31
0.0
  0
LINE
  5
887
  8
\U+6807\U+6CE8
 62
     0
 10
7663.3024063035964
 20
4853.5929414931652
 30
0.0
 11
7663.3024063035964
 21
4648.9929414931639
 31
0.0
  0
SOLID
  5
888
  8
\U+6807\U+6CE8
 62
     0
 10
7661.3024063035946
 20
4853.5929414931652
 30
0.0
 11
7665.3024063035937
 21
4853.5929414931652
 31
0.0
 12
7663.3024063035964
 22
4865.5929414931643
 32
0.0
 13
7663.3024063035964
 23
4865.5929414931643
 33
0.0
  0
SOLID
  5
889
  8
\U+6807\U+6CE8
 62
     0
 10
7661.3024063035946
 20
4648.9929414931639
 30
0.0
 11
7665.3024063035937
 21
4648.9929414931639
 31
0.0
 12
7663.3024063035964
 22
4636.9929414931657
 32
0.0
 13
7663.3024063035964
 23
4636.9929414931657
 33
0.0
  0
INSERT
  5
88A
  8
0
  2
*U211
 10
0.0
 20
0.0
 30
0.0
  0
POINT
  5
88B
  8
DEFPOINTS
 62
     0
 10
7717.3385112730139
 20
4865.5929414931643
 30
0.0
  0
POINT
  5
88C
  8
DEFPOINTS
 62
     0
 10
7754.4808772429933
 20
4636.9929414931657
 30
0.0
  0
POINT
  5
88D
  8
DEFPOINTS
 62
     0
 10
7663.3024063035964
 20
4636.9929414931657
 30
0.0
  0
ENDBLK
  5
884
  8
0
  0
BLOCK
  8
0
  2
*D94
 70
     1
 10
0.0
 20
0.0
 30
0.0
  3
*D94
  1

  0
LINE
  5
891
  8
\U+6807\U+6CE8
 62
     0
 10
7726.3885112730004
 20
5185.1136627892602
 30
0.0
 11
7726.3885112730004
 21
5100.7102624379522
 31
0.0
  0
LINE
  5
892
  8
\U+6807\U+6CE8
 62
     0
 10
8126.3885112730013
 20
5185.1136627892602
 30
0.0
 11
8126.3885112730013
 21
5100.7102624379522
 31
0.0
  0
LINE
  5
893
  8
\U+6807\U+6CE8
 62
     0
 10
7738.3885112730031
 20
5110.7102624379522
 30
0.0
 11
8114.3885112730022
 21
5110.7102624379522
 31
0.0
  0
SOLID
  5
894
  8
\U+6807\U+6CE8
 62
     0
 10
7738.3885112730031
 20
5112.7102624379531
 30
0.0
 11
7738.3885112730031
 21
5108.7102624379522
 31
0.0
 12
7726.3885112730004
 22
5110.7102624379522
 32
0.0
 13
7726.3885112730004
 23
5110.7102624379522
 33
0.0
  0
SOLID
  5
895
  8
\U+6807\U+6CE8
 62
     0
 10
8114.3885112730022
 20
5112.7102624379531
 30
0.0
 11
8114.3885112730022
 21
5108.7102624379522
 31
0.0
 12
8126.3885112730013
 22
5110.7102624379522
 32
0.0
 13
8126.3885112730013
 23
5110.7102624379522
 33
0.0
  0
INSERT
  5
896
  8
0
  2
*U212
 10
0.0
 20
0.0
 30
0.0
  0
POINT
  5
897
  8
DEFPOINTS
 62
     0
 10
7726.3885112730004
 20
5190.1136627892611
 30
0.0
  0
POINT
  5
898
  8
DEFPOINTS
 62
     0
 10
8126.3885112730013
 20
5190.1136627892611
 30
0.0
  0
POINT
  5
899
  8
DEFPOINTS
 62
     0
 10
8126.3885112730013
 20
5110.7102624379522
 30
0.0
  0
ENDBLK
  5
890
  8
0
  0
BLOCK
  8
0
  2
*D95
 70
     1
 10
0.0
 20
0.0
 30
0.0
  3
*D95
  1

  0
LINE
  5
89D
  8
\U+6807\U+6CE8
 62
     0
 10
8151.3885112730031
 20
5185.1136627892602
 30
0.0
 11
8151.3885112730031
 21
5100.7102624379522
 31
0.0
  0
LINE
  5
89E
  8
\U+6807\U+6CE8
 62
     0
 10
8481.3885112730004
 20
5185.1136627892602
 30
0.0
 11
8481.3885112730004
 21
5100.7102624379522
 31
0.0
  0
LINE
  5
89F
  8
\U+6807\U+6CE8
 62
     0
 10
8163.3885112730031
 20
5110.7102624379522
 30
0.0
 11
8469.3885112730022
 21
5110.7102624379522
 31
0.0
  0
SOLID
  5
8A0
  8
\U+6807\U+6CE8
 62
     0
 10
8163.3885112730031
 20
5112.7102624379531
 30
0.0
 11
8163.3885112730031
 21
5108.7102624379522
 31
0.0
 12
8151.3885112730031
 22
5110.7102624379522
 32
0.0
 13
8151.3885112730031
 23
5110.7102624379522
 33
0.0
  0
SOLID
  5
8A1
  8
\U+6807\U+6CE8
 62
     0
 10
8469.3885112730022
 20
5112.7102624379531
 30
0.0
 11
8469.3885112730022
 21
5108.7102624379522
 31
0.0
 12
8481.3885112730004
 22
5110.7102624379522
 32
0.0
 13
8481.3885112730004
 23
5110.7102624379522
 33
0.0
  0
INSERT
  5
8A2
  8
0
  2
*U213
 10
0.0
 20
0.0
 30
0.0
  0
POINT
  5
8A3
  8
DEFPOINTS
 62
     0
 10
8151.3885112730031
 20
5190.1136627892611
 30
0.0
  0
POINT
  5
8A4
  8
DEFPOINTS
 62
     0
 10
8481.3885112730004
 20
5190.1136627892611
 30
0.0
  0
POINT
  5
8A5
  8
DEFPOINTS
 62
     0
 10
8481.3885112730004
 20
5110.7102624379522
 30
0.0
  0
ENDBLK
  5
89C
  8
0
  0
BLOCK
  8
0
  2
*D96
 70
     1
 10
0.0
 20
0.0
 30
0.0
  3
*D96
  1

  0
LINE
  5
8A9
  8
\U+6807\U+6CE8
 62
     0
 10
7736.3885112730022
 20
5645.1136627892602
 30
0.0
 11
7665.4913297469129
 21
5645.1136627892602
 31
0.0
  0
LINE
  5
8AA
  8
\U+6807\U+6CE8
 62
     0
 10
7736.3885112730022
 20
5175.1136627892611
 30
0.0
 11
7665.4913297469129
 21
5175.1136627892611
 31
0.0
  0
LINE
  5
8AB
  8
\U+6807\U+6CE8
 62
     0
 10
7675.4913297469166
 20
5633.1136627892602
 30
0.0
 11
7675.4913297469166
 21
5187.1136627892602
 31
0.0
  0
SOLID
  5
8AC
  8
\U+6807\U+6CE8
 62
     0
 10
7673.4913297469129
 20
5633.1136627892602
 30
0.0
 11
7677.4913297469138
 21
5633.1136627892602
 31
0.0
 12
7675.4913297469166
 22
5645.1136627892602
 32
0.0
 13
7675.4913297469166
 23
5645.1136627892602
 33
0.0
  0
SOLID
  5
8AD
  8
\U+6807\U+6CE8
 62
     0
 10
7673.4913297469129
 20
5187.1136627892602
 30
0.0
 11
7677.4913297469138
 21
5187.1136627892602
 31
0.0
 12
7675.4913297469166
 22
5175.1136627892611
 32
0.0
 13
7675.4913297469166
 23
5175.1136627892611
 33
0.0
  0
INSERT
  5
8AE
  8
0
  2
*U214
 10
0.0
 20
0.0
 30
0.0
  0
POINT
  5
8AF
  8
DEFPOINTS
 62
     0
 10
7741.3885112730031
 20
5645.1136627892602
 30
0.0
  0
POINT
  5
8B0
  8
DEFPOINTS
 62
     0
 10
7741.3885112730031
 20
5175.1136627892611
 30
0.0
  0
POINT
  5
8B1
  8
DEFPOINTS
 62
     0
 10
7675.4913297469166
 20
5175.1136627892611
 30
0.0
  0
ENDBLK
  5
8A8
  8
0
  0
BLOCK
  8
0
  2
*D97
 70
     1
 10
0.0
 20
0.0
 30
0.0
  3
*D97
  1

  0
LINE
  5
8B5
  8
\U+6807\U+6CE8
 62
     0
 10
8471.3885112730022
 20
5575.1136627892602
 30
0.0
 11
8561.1275083772016
 21
5575.1136627892602
 31
0.0
  0
LINE
  5
8B6
  8
\U+6807\U+6CE8
 62
     0
 10
8471.3885112730022
 20
5175.1136627892611
 30
0.0
 11
8561.1275083772016
 21
5175.1136627892611
 31
0.0
  0
LINE
  5
8B7
  8
\U+6807\U+6CE8
 62
     0
 10
8551.1275083772016
 20
5563.1136627892602
 30
0.0
 11
8551.1275083772016
 21
5187.1136627892602
 31
0.0
  0
SOLID
  5
8B8
  8
\U+6807\U+6CE8
 62
     0
 10
8549.1275083772016
 20
5563.1136627892602
 30
0.0
 11
8553.1275083772016
 21
5563.1136627892602
 31
0.0
 12
8551.1275083772016
 22
5575.1136627892602
 32
0.0
 13
8551.1275083772016
 23
5575.1136627892602
 33
0.0
  0
SOLID
  5
8B9
  8
\U+6807\U+6CE8
 62
     0
 10
8549.1275083772016
 20
5187.1136627892602
 30
0.0
 11
8553.1275083772016
 21
5187.1136627892602
 31
0.0
 12
8551.1275083772016
 22
5175.1136627892611
 32
0.0
 13
8551.1275083772016
 23
5175.1136627892611
 33
0.0
  0
INSERT
  5
8BA
  8
0
  2
*U215
 10
0.0
 20
0.0
 30
0.0
  0
POINT
  5
8BB
  8
DEFPOINTS
 62
     0
 10
8466.3885112730022
 20
5575.1136627892602
 30
0.0
  0
POINT
  5
8BC
  8
DEFPOINTS
 62
     0
 10
8466.3885112730022
 20
5175.1136627892611
 30
0.0
  0
POINT
  5
8BD
  8
DEFPOINTS
 62
     0
 10
8551.1275083772016
 20
5175.1136627892611
 30
0.0
  0
ENDBLK
  5
8B4
  8
0
  0
BLOCK
  8
0
  2
*D98
 70
     1
 10
0.0
 20
0.0
 30
0.0
  3
*D98
  1

  0
LINE
  5
8C1
  8
\U+6807\U+6CE8
 62
     0
 10
8500.8385112730139
 20
4865.5929414931643
 30
0.0
 11
8542.5387346021125
 21
4865.5929414931643
 31
0.0
  0
LINE
  5
8C2
  8
\U+6807\U+6CE8
 62
     0
 10
8461.4032064066687
 20
4687.7929414931614
 30
0.0
 11
8542.5387346021125
 21
4687.7929414931614
 31
0.0
  0
LINE
  5
8C3
  8
\U+6807\U+6CE8
 62
     0
 10
8532.5387346021125
 20
4853.5929414931652
 30
0.0
 11
8532.5387346021125
 21
4699.7929414931614
 31
0.0
  0
SOLID
  5
8C4
  8
\U+6807\U+6CE8
 62
     0
 10
8530.5387346021125
 20
4853.5929414931652
 30
0.0
 11
8534.5387346021125
 21
4853.5929414931652
 31
0.0
 12
8532.5387346021125
 22
4865.5929414931643
 32
0.0
 13
8532.5387346021125
 23
4865.5929414931643
 33
0.0
  0
SOLID
  5
8C5
  8
\U+6807\U+6CE8
 62
     0
 10
8530.5387346021125
 20
4699.7929414931614
 30
0.0
 11
8534.5387346021125
 21
4699.7929414931614
 31
0.0
 12
8532.5387346021125
 22
4687.7929414931614
 32
0.0
 13
8532.5387346021125
 23
4687.7929414931614
 33
0.0
  0
INSERT
  5
8C6
  8
0
  2
*U216
 10
0.0
 20
0.0
 30
0.0
  0
POINT
  5
8C7
  8
DEFPOINTS
 62
     0
 10
8495.8385112730139
 20
4865.5929414931643
 30
0.0
  0
POINT
  5
8C8
  8
DEFPOINTS
 62
     0
 10
8456.4032064066669
 20
4687.7929414931614
 30
0.0
  0
POINT
  5
8C9
  8
DEFPOINTS
 62
     0
 10
8532.5387346021125
 20
4687.7929414931614
 30
0.0
  0
ENDBLK
  5
8C0
  8
0
  0
BLOCK
  8
0
  2
*D99
 70
     1
 10
0.0
 20
0.0
 30
0.0
  3
*D99
  1

  0
LINE
  5
8CD
  8
\U+6807\U+6CE8
 62
     0
 10
8126.3885112730013
 20
5415.1136627892602
 30
0.0
 11
8126.3885112730013
 21
5420.1136627892602
 31
0.0
  0
LINE
  5
8CE
  8
\U+6807\U+6CE8
 62
     0
 10
8151.3885112730031
 20
5415.1136627892602
 30
0.0
 11
8151.3885112730031
 21
5420.1136627892602
 31
0.0
  0
LINE
  5
8CF
  8
\U+6807\U+6CE8
 62
     0
 10
8114.3885112730022
 20
5410.1136627892602
 30
0.0
 11
8102.3885112730031
 21
5410.1136627892602
 31
0.0
  0
LINE
  5
8D0
  8
\U+6807\U+6CE8
 62
     0
 10
8163.3885112730031
 20
5410.1136627892602
 30
0.0
 11
8208.5929557174477
 21
5410.1136627892602
 31
0.0
  0
LINE
  5
8D1
  8
\U+6807\U+6CE8
 62
     0
 10
8126.3885112730013
 20
5410.1136627892602
 30
0.0
 11
8151.3885112730031
 21
5410.1136627892602
 31
0.0
  0
SOLID
  5
8D2
  8
\U+6807\U+6CE8
 62
     0
 10
8114.3885112730022
 20
5412.1136627892602
 30
0.0
 11
8114.3885112730022
 21
5408.1136627892602
 31
0.0
 12
8126.3885112730013
 22
5410.1136627892602
 32
0.0
 13
8126.3885112730013
 23
5410.1136627892602
 33
0.0
  0
SOLID
  5
8D3
  8
\U+6807\U+6CE8
 62
     0
 10
8163.3885112730031
 20
5412.1136627892602
 30
0.0
 11
8163.3885112730031
 21
5408.1136627892602
 31
0.0
 12
8151.3885112730031
 22
5410.1136627892602
 32
0.0
 13
8151.3885112730031
 23
5410.1136627892602
 33
0.0
  0
INSERT
  5
8D4
  8
0
  2
*U217
 10
0.0
 20
0.0
 30
0.0
  0
POINT
  5
8D5
  8
DEFPOINTS
 62
     0
 10
8126.3885112730013
 20
5410.1136627892602
 30
0.0
  0
POINT
  5
8D6
  8
DEFPOINTS
 62
     0
 10
8151.3885112730031
 20
5410.1136627892602
 30
0.0
  0
POINT
  5
8D7
  8
DEFPOINTS
 62
     0
 10
8151.3885112730031
 20
5410.1136627892602
 30
0.0
  0
ENDBLK
  5
8CC
  8
0
  0
BLOCK
  8
0
  2
*D100
 70
     1
 10
0.0
 20
0.0
 30
0.0
  3
*D100
  1

  0
LINE
  5
8E5
  8
\U+6807\U+6CE8
 62
     0
 10
7921.3885112730013
 20
5645.1136627892602
 30
0.0
 11
7832.7792500701726
 21
5645.1136627892602
 31
0.0
  0
LINE
  5
8E6
  8
\U+6807\U+6CE8
 62
     0
 10
7921.3885112730013
 20
5525.1136627892602
 30
0.0
 11
7832.7792500701726
 21
5525.1136627892602
 31
0.0
  0
LINE
  5
8E7
  8
\U+6807\U+6CE8
 62
     0
 10
7842.7792500701744
 20
5633.1136627892602
 30
0.0
 11
7842.7792500701744
 21
5537.1136627892602
 31
0.0
  0
SOLID
  5
8E8
  8
\U+6807\U+6CE8
 62
     0
 10
7840.7792500701726
 20
5633.1136627892602
 30
0.0
 11
7844.7792500701753
 21
5633.1136627892602
 31
0.0
 12
7842.7792500701744
 22
5645.1136627892602
 32
0.0
 13
7842.7792500701744
 23
5645.1136627892602
 33
0.0
  0
SOLID
  5
8E9
  8
\U+6807\U+6CE8
 62
     0
 10
7840.7792500701726
 20
5537.1136627892602
 30
0.0
 11
7844.7792500701753
 21
5537.1136627892602
 31
0.0
 12
7842.7792500701744
 22
5525.1136627892602
 32
0.0
 13
7842.7792500701744
 23
5525.1136627892602
 33
0.0
  0
INSERT
  5
8EA
  8
0
  2
*U219
 10
0.0
 20
0.0
 30
0.0
  0
POINT
  5
8EB
  8
DEFPOINTS
 62
     0
 10
7926.3885112730013
 20
5645.1136627892602
 30
0.0
  0
POINT
  5
8EC
  8
DEFPOINTS
 62
     0
 10
7926.3885112730013
 20
5525.1136627892602
 30
0.0
  0
POINT
  5
8ED
  8
DEFPOINTS
 62
     0
 10
7842.7792500701744
 20
5525.1136627892602
 30
0.0
  0
ENDBLK
  5
8E4
  8
0
  0
BLOCK
  8
0
  2
*D101
 70
     1
 10
0.0
 20
0.0
 30
0.0
  3
*D101
  1

  0
LINE
  5
8F1
  8
\U+6807\U+6CE8
 62
     0
 10
8321.3885112730022
 20
5575.1136627892602
 30
0.0
 11
8429.9651835678633
 21
5575.1136627892602
 31
0.0
  0
LINE
  5
8F2
  8
\U+6807\U+6CE8
 62
     0
 10
8321.3885112730022
 20
5455.1136627892602
 30
0.0
 11
8429.9651835678633
 21
5455.1136627892602
 31
0.0
  0
LINE
  5
8F3
  8
\U+6807\U+6CE8
 62
     0
 10
8419.9651835678633
 20
5563.1136627892602
 30
0.0
 11
8419.9651835678633
 21
5467.1136627892602
 31
0.0
  0
SOLID
  5
8F4
  8
\U+6807\U+6CE8
 62
     0
 10
8417.9651835678633
 20
5563.1136627892602
 30
0.0
 11
8421.9651835678633
 21
5563.1136627892602
 31
0.0
 12
8419.9651835678633
 22
5575.1136627892602
 32
0.0
 13
8419.9651835678633
 23
5575.1136627892602
 33
0.0
  0
SOLID
  5
8F5
  8
\U+6807\U+6CE8
 62
     0
 10
8417.9651835678633
 20
5467.1136627892602
 30
0.0
 11
8421.9651835678633
 21
5467.1136627892602
 31
0.0
 12
8419.9651835678633
 22
5455.1136627892602
 32
0.0
 13
8419.9651835678633
 23
5455.1136627892602
 33
0.0
  0
INSERT
  5
8F6
  8
0
  2
*U220
 10
0.0
 20
0.0
 30
0.0
  0
POINT
  5
8F7
  8
DEFPOINTS
 62
     0
 10
8316.3885112730022
 20
5575.1136627892602
 30
0.0
  0
POINT
  5
8F8
  8
DEFPOINTS
 62
     0
 10
8316.3885112730022
 20
5455.1136627892602
 30
0.0
  0
POINT
  5
8F9
  8
DEFPOINTS
 62
     0
 10
8419.9651835678633
 20
5455.1136627892602
 30
0.0
  0
ENDBLK
  5
8F0
  8
0
  0
BLOCK
  8
0
  2
*D102
 70
     1
 10
0.0
 20
0.0
 30
0.0
  3
*D102
  1

  0
LINE
  5
A89
  8
\U+6807\U+6CE8
 62
     0
 10
7785.0843533780589
 20
5587.4680525038902
 30
0.0
 11
7739.2415466398397
 21
5632.2090250166821
 31
0.0
  0
INSERT
  5
A8A
  8
0
  2
*U249
 10
0.0
 20
0.0
 30
0.0
  0
SOLID
  5
A8B
  8
\U+6807\U+6CE8
 62
     0
 10
7740.6384547914431
 20
5633.6403347721116
 30
0.0
 11
7737.8446384882382
 21
5630.7777152612534
 31
0.0
 12
7730.6536881072643
 22
5640.5904739262978
 32
0.0
 13
7730.6536881072643
 23
5640.5904739262978
 33
0.0
  0
POINT
  5
A8C
  8
DEFPOINTS
 62
     0
 10
7730.6536881072643
 20
5640.5904739262978
 30
0.0
  0
POINT
  5
A8D
  8
DEFPOINTS
 62
     0
 10
7741.3885112730031
 20
5630.1136627892611
 30
0.0
  0
ENDBLK
  5
907
  8
0
  0
BLOCK
  8
0
  2
*D103
 70
     1
 10
0.0
 20
0.0
 30
0.0
  3
*D103
  1

  0
LINE
  5
910
  8
\U+6807\U+6CE8
 62
     0
 10
8501.3885112730022
 20
5373.2636627892634
 30
0.0
 11
8501.3885112730022
 21
5288.8265003479937
 31
0.0
  0
LINE
  5
911
  8
\U+6807\U+6CE8
 62
     0
 10
8481.3885112730004
 20
5370.1136627892602
 30
0.0
 11
8481.3885112730004
 21
5288.8265003479937
 31
0.0
  0
LINE
  5
912
  8
\U+6807\U+6CE8
 62
     0
 10
8513.3885112730022
 20
5298.8265003479946
 30
0.0
 11
8525.3885112730022
 21
5298.8265003479946
 31
0.0
  0
LINE
  5
913
  8
\U+6807\U+6CE8
 62
     0
 10
8469.3885112730022
 20
5298.8265003479946
 30
0.0
 11
8423.8774001618913
 21
5298.8265003479946
 31
0.0
  0
LINE
  5
914
  8
\U+6807\U+6CE8
 62
     0
 10
8501.3885112730022
 20
5298.8265003479946
 30
0.0
 11
8481.3885112730004
 21
5298.8265003479946
 31
0.0
  0
SOLID
  5
915
  8
\U+6807\U+6CE8
 62
     0
 10
8513.3885112730022
 20
5300.8265003479937
 30
0.0
 11
8513.3885112730022
 21
5296.8265003479946
 31
0.0
 12
8501.3885112730022
 22
5298.8265003479946
 32
0.0
 13
8501.3885112730022
 23
5298.8265003479946
 33
0.0
  0
SOLID
  5
916
  8
\U+6807\U+6CE8
 62
     0
 10
8469.3885112730022
 20
5300.8265003479937
 30
0.0
 11
8469.3885112730022
 21
5296.8265003479946
 31
0.0
 12
8481.3885112730004
 22
5298.8265003479946
 32
0.0
 13
8481.3885112730004
 23
5298.8265003479946
 33
0.0
  0
INSERT
  5
917
  8
0
  2
*U222
 10
0.0
 20
0.0
 30
0.0
  0
POINT
  5
918
  8
DEFPOINTS
 62
     0
 10
8501.3885112730022
 20
5378.2636627892634
 30
0.0
  0
POINT
  5
919
  8
DEFPOINTS
 62
     0
 10
8481.3885112730004
 20
5375.1136627892602
 30
0.0
  0
POINT
  5
91A
  8
DEFPOINTS
 62
     0
 10
8481.3885112730004
 20
5298.8265003479946
 30
0.0
  0
ENDBLK
  5
90F
  8
0
  0
BLOCK
  8
0
  2
*D104
 70
     1
 10
0.0
 20
0.0
 30
0.0
  3
*D104
  1

  0
LINE
  5
A8E
  8
\U+6807\U+6CE8
 62
     0
 10
7797.5674894159274
 20
4695.2539926284599
 30
0.0
 11
7752.3638466962648
 21
4649.8673400100561
 31
0.0
  0
INSERT
  5
A8F
  8
0
  2
*U250
 10
0.0
 20
0.0
 30
0.0
  0
SOLID
  5
A90
  8
\U+6807\U+6CE8
 62
     0
 10
7750.9467790409217
 20
4651.2786937078154
 30
0.0
 11
7753.7809143516124
 21
4648.4559863122986
 31
0.0
 12
7743.8957245097208
 22
4641.3649340779848
 32
0.0
 13
7743.8957245097208
 23
4641.3649340779848
 33
0.0
  0
POINT
  5
A91
  8
DEFPOINTS
 62
     0
 10
7743.8957245097208
 20
4641.3649340779848
 30
0.0
  0
POINT
  5
A92
  8
DEFPOINTS
 62
     0
 10
7754.4808772429933
 20
4651.9929414931657
 30
0.0
  0
ENDBLK
  5
933
  8
0
  0
BLOCK
  8
0
  2
*D105
 70
     1
 10
0.0
 20
0.0
 30
0.0
  3
*D105
  1

  0
LINE
  5
93C
  8
\U+6807\U+6CE8
 62
     0
 10
7706.3885112730022
 20
5180.1136627892474
 30
0.0
 11
7706.3885112730022
 21
5052.1924294255268
 31
0.0
  0
LINE
  5
93D
  8
\U+6807\U+6CE8
 62
     0
 10
8501.3885112730022
 20
5201.6699145404609
 30
0.0
 11
8501.3885112730022
 21
5052.1924294255268
 31
0.0
  0
LINE
  5
93E
  8
\U+6807\U+6CE8
 62
     0
 10
7718.3885112730013
 20
5062.1924294255268
 30
0.0
 11
8489.3885112730022
 21
5062.1924294255268
 31
0.0
  0
SOLID
  5
93F
  8
\U+6807\U+6CE8
 62
     0
 10
7718.3885112730013
 20
5064.1924294255268
 30
0.0
 11
7718.3885112730013
 21
5060.1924294255259
 31
0.0
 12
7706.3885112730022
 22
5062.1924294255268
 32
0.0
 13
7706.3885112730022
 23
5062.1924294255268
 33
0.0
  0
SOLID
  5
940
  8
\U+6807\U+6CE8
 62
     0
 10
8489.3885112730022
 20
5064.1924294255268
 30
0.0
 11
8489.3885112730022
 21
5060.1924294255259
 31
0.0
 12
8501.3885112730022
 22
5062.1924294255268
 32
0.0
 13
8501.3885112730022
 23
5062.1924294255268
 33
0.0
  0
INSERT
  5
941
  8
0
  2
*U225
 10
0.0
 20
0.0
 30
0.0
  0
POINT
  5
942
  8
DEFPOINTS
 62
     0
 10
7706.3885112730022
 20
5185.1136627892456
 30
0.0
  0
POINT
  5
943
  8
DEFPOINTS
 62
     0
 10
8501.3885112730022
 20
5206.6699145404609
 30
0.0
  0
POINT
  5
944
  8
DEFPOINTS
 62
     0
 10
8501.3885112730022
 20
5062.1924294255268
 30
0.0
  0
ENDBLK
  5
93B
  8
0
  0
BLOCK
  8
0
  2
*D106
 70
     1
 10
0.0
 20
0.0
 30
0.0
  3
*D106
  1

  0
LINE
  5
948
  8
\U+6807\U+6CE8
 62
     0
 10
7731.3885112730022
 20
5665.1136627892602
 30
0.0
 11
7598.8454335734532
 21
5665.1136627892602
 31
0.0
  0
LINE
  5
949
  8
\U+6807\U+6CE8
 62
     0
 10
7731.3885112730022
 20
5155.1136627892429
 30
0.0
 11
7598.8454335734532
 21
5155.1136627892429
 31
0.0
  0
LINE
  5
94A
  8
\U+6807\U+6CE8
 62
     0
 10
7608.845433573455
 20
5653.1136627892602
 30
0.0
 11
7608.845433573455
 21
5167.1136627892474
 31
0.0
  0
SOLID
  5
94B
  8
\U+6807\U+6CE8
 62
     0
 10
7606.8454335734532
 20
5653.1136627892602
 30
0.0
 11
7610.8454335734532
 21
5653.1136627892602
 31
0.0
 12
7608.845433573455
 22
5665.1136627892602
 32
0.0
 13
7608.845433573455
 23
5665.1136627892602
 33
0.0
  0
SOLID
  5
94C
  8
\U+6807\U+6CE8
 62
     0
 10
7606.8454335734532
 20
5167.1136627892474
 30
0.0
 11
7610.8454335734532
 21
5167.1136627892474
 31
0.0
 12
7608.845433573455
 22
5155.1136627892429
 32
0.0
 13
7608.845433573455
 23
5155.1136627892429
 33
0.0
  0
INSERT
  5
94D
  8
0
  2
*U226
 10
0.0
 20
0.0
 30
0.0
  0
POINT
  5
94E
  8
DEFPOINTS
 62
     0
 10
7736.3885112730022
 20
5665.1136627892602
 30
0.0
  0
POINT
  5
94F
  8
DEFPOINTS
 62
     0
 10
7736.3885112730022
 20
5155.1136627892429
 30
0.0
  0
POINT
  5
950
  8
DEFPOINTS
 62
     0
 10
7608.845433573455
 20
5155.1136627892429
 30
0.0
  0
ENDBLK
  5
947
  8
0
  0
BLOCK
  8
0
  2
*D107
 70
     1
 10
0.0
 20
0.0
 30
0.0
  3
*D107
  1

  0
LINE
  5
954
  8
\U+6807\U+6CE8
 62
     0
 10
8476.3885112730022
 20
5595.1136627892602
 30
0.0
 11
8626.4078044344897
 21
5595.1136627892602
 31
0.0
  0
LINE
  5
955
  8
\U+6807\U+6CE8
 62
     0
 10
8476.3885112730022
 20
5155.1136627892602
 30
0.0
 11
8626.4078044344897
 21
5155.1136627892602
 31
0.0
  0
LINE
  5
956
  8
\U+6807\U+6CE8
 62
     0
 10
8616.4078044344915
 20
5583.1136627892602
 30
0.0
 11
8616.4078044344915
 21
5167.1136627892602
 31
0.0
  0
SOLID
  5
957
  8
\U+6807\U+6CE8
 62
     0
 10
8614.4078044344915
 20
5583.1136627892602
 30
0.0
 11
8618.4078044344915
 21
5583.1136627892602
 31
0.0
 12
8616.4078044344915
 22
5595.1136627892602
 32
0.0
 13
8616.4078044344915
 23
5595.1136627892602
 33
0.0
  0
SOLID
  5
958
  8
\U+6807\U+6CE8
 62
     0
 10
8614.4078044344915
 20
5167.1136627892602
 30
0.0
 11
8618.4078044344915
 21
5167.1136627892602
 31
0.0
 12
8616.4078044344915
 22
5155.1136627892602
 32
0.0
 13
8616.4078044344915
 23
5155.1136627892602
 33
0.0
  0
INSERT
  5
959
  8
0
  2
*U227
 10
0.0
 20
0.0
 30
0.0
  0
POINT
  5
95A
  8
DEFPOINTS
 62
     0
 10
8471.3885112730022
 20
5595.1136627892602
 30
0.0
  0
POINT
  5
95B
  8
DEFPOINTS
 62
     0
 10
8471.3885112730022
 20
5155.1136627892602
 30
0.0
  0
POINT
  5
95C
  8
DEFPOINTS
 62
     0
 10
8616.4078044344915
 20
5155.1136627892602
 30
0.0
  0
ENDBLK
  5
953
  8
0
  0
BLOCK
  8
0
  2
*D108
 70
     1
 10
0.0
 20
0.0
 30
0.0
  3
*D108
  1

  0
LINE
  5
960
  8
\U+6807\U+6CE8
 62
     0
 10
8108.888511272814
 20
4865.5929414931716
 30
0.0
 11
8229.407915526197
 21
4865.5929414931716
 31
0.0
  0
LINE
  5
961
  8
\U+6807\U+6CE8
 62
     0
 10
8143.8885112730031
 20
4800.5929414931788
 30
0.0
 11
8229.407915526197
 21
4800.5929414931788
 31
0.0
  0
LINE
  5
962
  8
\U+6807\U+6CE8
 62
     0
 10
8219.407915526197
 20
4853.5929414931716
 30
0.0
 11
8219.407915526197
 21
4812.5929414931779
 31
0.0
  0
SOLID
  5
963
  8
\U+6807\U+6CE8
 62
     0
 10
8217.4079155261988
 20
4853.5929414931716
 30
0.0
 11
8221.4079155261988
 21
4853.5929414931716
 31
0.0
 12
8219.407915526197
 22
4865.5929414931716
 32
0.0
 13
8219.407915526197
 23
4865.5929414931716
 33
0.0
  0
SOLID
  5
964
  8
\U+6807\U+6CE8
 62
     0
 10
8217.4079155261988
 20
4812.5929414931779
 30
0.0
 11
8221.4079155261988
 21
4812.5929414931779
 31
0.0
 12
8219.407915526197
 22
4800.5929414931788
 32
0.0
 13
8219.407915526197
 23
4800.5929414931788
 33
0.0
  0
INSERT
  5
965
  8
0
  2
*U228
 10
0.0
 20
0.0
 30
0.0
  0
POINT
  5
966
  8
DEFPOINTS
 62
     0
 10
8103.8885112728121
 20
4865.5929414931716
 30
0.0
  0
POINT
  5
967
  8
DEFPOINTS
 62
     0
 10
8138.8885112730004
 20
4800.5929414931788
 30
0.0
  0
POINT
  5
968
  8
DEFPOINTS
 62
     0
 10
8219.407915526197
 20
4800.5929414931788
 30
0.0
  0
ENDBLK
  5
95F
  8
0
  0
BLOCK
  8
0
  2
*D109
 70
     1
 10
0.0
 20
0.0
 30
0.0
  3
*D109
  1

  0
LINE
  5
975
  8
\U+6807\U+6CE8
 62
     0
 10
1819.1348976316619
 20
2069.1857987212179
 30
0.0
 11
1740.723459302226
 21
2069.1857987212179
 31
0.0
  0
LINE
  5
976
  8
\U+6807\U+6CE8
 62
     0
 10
1819.1348976316619
 20
1662.7857987212089
 30
0.0
 11
1740.723459302226
 21
1662.7857987212089
 31
0.0
  0
LINE
  5
977
  8
\U+6807\U+6CE8
 62
     0
 10
1753.223459302226
 20
2054.1857987212179
 30
0.0
 11
1753.223459302226
 21
1677.7857987212089
 31
0.0
  0
SOLID
  5
978
  8
\U+6807\U+6CE8
 62
     0
 10
1750.723459302226
 20
2054.1857987212179
 30
0.0
 11
1755.723459302226
 21
2054.1857987212179
 31
0.0
 12
1753.223459302226
 22
2069.1857987212179
 32
0.0
 13
1753.223459302226
 23
2069.1857987212179
 33
0.0
  0
SOLID
  5
979
  8
\U+6807\U+6CE8
 62
     0
 10
1750.723459302226
 20
1677.7857987212089
 30
0.0
 11
1755.723459302226
 21
1677.7857987212089
 31
0.0
 12
1753.223459302226
 22
1662.7857987212089
 32
0.0
 13
1753.223459302226
 23
1662.7857987212089
 33
0.0
  0
INSERT
  5
97A
  8
0
  2
*U230
 10
0.0
 20
0.0
 30
0.0
  0
POINT
  5
97B
  8
DEFPOINTS
 62
     0
 10
1825.3848976316619
 20
2069.1857987212179
 30
0.0
  0
POINT
  5
97C
  8
DEFPOINTS
 62
     0
 10
1825.3848976316619
 20
1662.7857987212089
 30
0.0
  0
POINT
  5
97D
  8
DEFPOINTS
 62
     0
 10
1753.223459302226
 20
1662.7857987212089
 30
0.0
  0
ENDBLK
  5
974
  8
0
  0
BLOCK
  8
0
  2
*D110
 70
     1
 10
0.0
 20
0.0
 30
0.0
  3
*D110
  1

  0
LINE
  5
981
  8
\U+6807\U+6CE8
 62
     0
 10
1774.1348976316619
 20
1472.6474246396001
 30
0.0
 11
1716.6118165218029
 21
1472.6474246396001
 31
0.0
  0
LINE
  5
982
  8
\U+6807\U+6CE8
 62
     0
 10
1832.227263601653
 20
1244.047424639602
 30
0.0
 11
1716.6118165218029
 21
1244.047424639602
 31
0.0
  0
LINE
  5
983
  8
\U+6807\U+6CE8
 62
     0
 10
1729.1118165218029
 20
1457.6474246396001
 30
0.0
 11
1729.1118165218029
 21
1259.0474246396011
 31
0.0
  0
SOLID
  5
984
  8
\U+6807\U+6CE8
 62
     0
 10
1726.6118165218029
 20
1457.6474246396001
 30
0.0
 11
1731.6118165218029
 21
1457.6474246396001
 31
0.0
 12
1729.1118165218029
 22
1472.6474246396001
 32
0.0
 13
1729.1118165218029
 23
1472.6474246396001
 33
0.0
  0
SOLID
  5
985
  8
\U+6807\U+6CE8
 62
     0
 10
1726.6118165218029
 20
1259.0474246396011
 30
0.0
 11
1731.6118165218029
 21
1259.0474246396011
 31
0.0
 12
1729.1118165218029
 22
1244.047424639602
 32
0.0
 13
1729.1118165218029
 23
1244.047424639602
 33
0.0
  0
INSERT
  5
986
  8
0
  2
*U231
 10
0.0
 20
0.0
 30
0.0
  0
POINT
  5
987
  8
DEFPOINTS
 62
     0
 10
1780.3848976316619
 20
1472.6474246396001
 30
0.0
  0
POINT
  5
988
  8
DEFPOINTS
 62
     0
 10
1838.477263601653
 20
1244.047424639602
 30
0.0
  0
POINT
  5
989
  8
DEFPOINTS
 62
     0
 10
1729.1118165218029
 20
1244.047424639602
 30
0.0
  0
ENDBLK
  5
980
  8
0
  0
BLOCK
  8
0
  2
*D111
 70
     1
 10
0.0
 20
0.0
 30
0.0
  3
*D111
  1

  0
LINE
  5
A93
  8
\U+6807\U+6CE8
 62
     0
 10
2128.3848976316549
 20
2069.1857987212179
 30
0.0
 11
1975.5978918325311
 21
2069.1857987212179
 31
0.0
  0
LINE
  5
A94
  8
\U+6807\U+6CE8
 62
     0
 10
2128.3848976316549
 20
1949.1857987212179
 30
0.0
 11
1975.5978918325311
 21
1949.1857987212179
 31
0.0
  0
LINE
  5
A95
  8
\U+6807\U+6CE8
 62
     0
 10
1985.5978918325311
 20
2057.1857987212179
 30
0.0
 11
1985.5978918325311
 21
1961.1857987212179
 31
0.0
  0
SOLID
  5
A96
  8
\U+6807\U+6CE8
 62
     0
 10
1983.5978918325311
 20
2057.1857987212179
 30
0.0
 11
1987.5978918325311
 21
2057.1857987212179
 31
0.0
 12
1985.5978918325311
 22
2069.1857987212179
 32
0.0
 13
1985.5978918325311
 23
2069.1857987212179
 33
0.0
  0
SOLID
  5
A97
  8
\U+6807\U+6CE8
 62
     0
 10
1983.5978918325311
 20
1961.1857987212179
 30
0.0
 11
1987.5978918325311
 21
1961.1857987212179
 31
0.0
 12
1985.5978918325311
 22
1949.1857987212179
 32
0.0
 13
1985.5978918325311
 23
1949.1857987212179
 33
0.0
  0
INSERT
  5
A98
  8
0
  2
*U251
 10
0.0
 20
0.0
 30
0.0
  0
POINT
  5
A99
  8
DEFPOINTS
 62
     0
 10
2133.3848976316549
 20
2069.1857987212179
 30
0.0
  0
POINT
  5
A9A
  8
DEFPOINTS
 62
     0
 10
2133.3848976316549
 20
1949.1857987212179
 30
0.0
  0
POINT
  5
A9B
  8
DEFPOINTS
 62
     0
 10
1985.5978918325311
 20
1949.1857987212179
 30
0.0
  0
ENDBLK
  5
98C
  8
0
  0
BLOCK
  8
0
  2
*D112
 70
     1
 10
0.0
 20
0.0
 30
0.0
  3
*D112
  1

  0
LINE
  5
A9C
  8
\U+6807\U+6CE8
 62
     0
 10
1864.4809640035969
 20
2007.2872668878661
 30
0.0
 11
1823.4639397612871
 21
2056.4901252735958
 31
0.0
  0
INSERT
  5
A9D
  8
0
  2
*U252
 10
0.0
 20
0.0
 30
0.0
  0
SOLID
  5
A9E
  8
\U+6807\U+6CE8
 62
     0
 10
1825.000157462893
 20
2057.7707638538641
 30
0.0
 11
1821.9277220596809
 21
2055.2094866933271
 31
0.0
 12
1815.7801082796759
 22
2065.7074314832321
 32
0.0
 13
1815.7801082796759
 23
2065.7074314832321
 33
0.0
  0
POINT
  5
A9F
  8
DEFPOINTS
 62
     0
 10
1815.7801082796759
 20
2065.7074314832321
 30
0.0
  0
POINT
  5
AA0
  8
DEFPOINTS
 62
     0
 10
1825.3848976316619
 20
2054.1857987212179
 30
0.0
  0
ENDBLK
  5
998
  8
0
  0
BLOCK
  8
0
  2
*D113
 70
     1
 10
0.0
 20
0.0
 30
0.0
  3
*D113
  1

  0
LINE
  5
9B5
  8
\U+6807\U+6CE8
 62
     0
 10
1780.3848976316619
 20
1884.0857987212121
 30
0.0
 11
1780.3848976316619
 21
1839.0485897048029
 31
0.0
  0
LINE
  5
9B6
  8
\U+6807\U+6CE8
 62
     0
 10
1810.3848976316619
 20
1884.0857987212121
 30
0.0
 11
1810.3848976316619
 21
1839.0485897048029
 31
0.0
  0
LINE
  5
9B7
  8
\U+6807\U+6CE8
 62
     0
 10
1768.3848976316619
 20
1849.0485897048029
 30
0.0
 11
1756.3848976316619
 21
1849.0485897048029
 31
0.0
  0
LINE
  5
9B8
  8
\U+6807\U+6CE8
 62
     0
 10
1822.3848976316619
 20
1849.0485897048029
 30
0.0
 11
1867.691564298329
 21
1849.0485897048029
 31
0.0
  0
LINE
  5
9B9
  8
\U+6807\U+6CE8
 62
     0
 10
1780.3848976316619
 20
1849.0485897048029
 30
0.0
 11
1810.3848976316619
 21
1849.0485897048029
 31
0.0
  0
SOLID
  5
9BA
  8
\U+6807\U+6CE8
 62
     0
 10
1768.3848976316619
 20
1851.048589704802
 30
0.0
 11
1768.3848976316619
 21
1847.0485897048029
 31
0.0
 12
1780.3848976316619
 22
1849.0485897048029
 32
0.0
 13
1780.3848976316619
 23
1849.0485897048029
 33
0.0
  0
SOLID
  5
9BB
  8
\U+6807\U+6CE8
 62
     0
 10
1822.3848976316619
 20
1851.048589704802
 30
0.0
 11
1822.3848976316619
 21
1847.0485897048029
 31
0.0
 12
1810.3848976316619
 22
1849.0485897048029
 32
0.0
 13
1810.3848976316619
 23
1849.0485897048029
 33
0.0
  0
INSERT
  5
9BC
  8
0
  2
*U234
 10
0.0
 20
0.0
 30
0.0
  0
POINT
  5
9BD
  8
DEFPOINTS
 62
     0
 10
1780.3848976316619
 20
1889.0857987212121
 30
0.0
  0
POINT
  5
9BE
  8
DEFPOINTS
 62
     0
 10
1810.3848976316619
 20
1889.0857987212121
 30
0.0
  0
POINT
  5
9BF
  8
DEFPOINTS
 62
     0
 10
1810.3848976316619
 20
1849.0485897048029
 30
0.0
  0
ENDBLK
  5
9B4
  8
0
  0
BLOCK
  8
0
  2
*D114
 70
     1
 10
0.0
 20
0.0
 30
0.0
  3
*D114
  1

  0
LINE
  5
9C3
  8
\U+6807\U+6CE8
 62
     0
 10
1780.3848976316619
 20
2146.635798721215
 30
0.0
 11
1780.3848976316619
 21
2283.207550868673
 31
0.0
  0
LINE
  5
9C4
  8
\U+6807\U+6CE8
 62
     0
 10
2486.3848976316481
 20
2146.635798721215
 30
0.0
 11
2486.3848976316481
 21
2283.207550868673
 31
0.0
  0
LINE
  5
9C5
  8
\U+6807\U+6CE8
 62
     0
 10
1795.3848976316619
 20
2270.707550868673
 30
0.0
 11
2471.3848976316481
 21
2270.707550868673
 31
0.0
  0
SOLID
  5
9C6
  8
\U+6807\U+6CE8
 62
     0
 10
1795.3848976316619
 20
2273.207550868673
 30
0.0
 11
1795.3848976316619
 21
2268.207550868673
 31
0.0
 12
1780.3848976316619
 22
2270.707550868673
 32
0.0
 13
1780.3848976316619
 23
2270.707550868673
 33
0.0
  0
SOLID
  5
9C7
  8
\U+6807\U+6CE8
 62
     0
 10
2471.3848976316481
 20
2273.207550868673
 30
0.0
 11
2471.3848976316481
 21
2268.207550868673
 31
0.0
 12
2486.3848976316481
 22
2270.707550868673
 32
0.0
 13
2486.3848976316481
 23
2270.707550868673
 33
0.0
  0
INSERT
  5
9C8
  8
0
  2
*U235
 10
0.0
 20
0.0
 30
0.0
  0
POINT
  5
9C9
  8
DEFPOINTS
 62
     0
 10
1780.3848976316619
 20
2140.385798721215
 30
0.0
  0
POINT
  5
9CA
  8
DEFPOINTS
 62
     0
 10
2486.3848976316481
 20
2140.385798721215
 30
0.0
  0
POINT
  5
9CB
  8
DEFPOINTS
 62
     0
 10
2486.3848976316481
 20
2270.707550868673
 30
0.0
  0
ENDBLK
  5
9C2
  8
0
  0
BLOCK
  8
0
  2
*D115
 70
     1
 10
0.0
 20
0.0
 30
0.0
  3
*D115
  1

  0
LINE
  5
AA8
  8
\U+6807\U+6CE8
 62
     0
 10
2209.218219046129
 20
2006.6739273970099
 30
0.0
 11
2151.9377994881861
 21
2083.3505448931978
 31
0.0
  0
LINE
  5
AA9
  8
\U+6807\U+6CE8
 62
     0
 10
2114.8319957751341
 20
2133.0210525492439
 30
0.0
 11
2107.6502273145438
 21
2142.6346991923492
 31
0.0
  0
INSERT
  5
AAA
  8
0
  2
*U254
 10
0.0
 20
0.0
 30
0.0
  0
LINE
  5
AAB
  8
\U+6807\U+6CE8
 62
     0
 10
2122.013764235724
 20
2123.407405906139
 30
0.0
 11
2144.7560310275971
 21
2092.9641915363022
 31
0.0
  0
SOLID
  5
AAC
  8
\U+6807\U+6CE8
 62
     0
 10
2116.4342702156518
 20
2134.218013959342
 30
0.0
 11
2113.2297213346169
 21
2131.8240911391449
 31
0.0
 12
2122.013764235724
 22
2123.407405906139
 32
0.0
 13
2122.013764235724
 23
2123.407405906139
 33
0.0
  0
SOLID
  5
AAD
  8
\U+6807\U+6CE8
 62
     0
 10
2153.5400739287038
 20
2084.5475063032959
 30
0.0
 11
2150.3355250476689
 21
2082.1535834830988
 31
0.0
 12
2144.7560310275971
 22
2092.9641915363022
 32
0.0
 13
2144.7560310275971
 23
2092.9641915363022
 33
0.0
  0
POINT
  5
AAE
  8
DEFPOINTS
 62
     0
 10
2144.7560310275971
 20
2092.9641915363022
 30
0.0
  0
POINT
  5
AAF
  8
DEFPOINTS
 62
     0
 10
2122.013764235724
 20
2123.407405906139
 30
0.0
  0
ENDBLK
  5
9D7
  8
0
  0
BLOCK
  8
0
  2
*D116
 70
     1
 10
0.0
 20
0.0
 30
0.0
  3
*D116
  1

  0
LINE
  5
9E3
  8
\U+6807\U+6CE8
 62
     0
 10
4380.0470716677773
 20
2132.6391046236799
 30
0.0
 11
4380.0470716677773
 21
2290.4002616481789
 31
0.0
  0
LINE
  5
9E4
  8
\U+6807\U+6CE8
 62
     0
 10
4926.1470716678132
 20
2132.6391046236799
 30
0.0
 11
4926.1470716678132
 21
2290.4002616481789
 31
0.0
  0
LINE
  5
9E5
  8
\U+6807\U+6CE8
 62
     0
 10
4392.0470716677783
 20
2280.400261648178
 30
0.0
 11
4914.1470716678123
 21
2280.400261648178
 31
0.0
  0
SOLID
  5
9E6
  8
\U+6807\U+6CE8
 62
     0
 10
4392.0470716677783
 20
2282.4002616481789
 30
0.0
 11
4392.0470716677783
 21
2278.4002616481789
 31
0.0
 12
4380.0470716677773
 22
2280.400261648178
 32
0.0
 13
4380.0470716677773
 23
2280.400261648178
 33
0.0
  0
SOLID
  5
9E7
  8
\U+6807\U+6CE8
 62
     0
 10
4914.1470716678123
 20
2282.4002616481789
 30
0.0
 11
4914.1470716678123
 21
2278.4002616481789
 31
0.0
 12
4926.1470716678132
 22
2280.400261648178
 32
0.0
 13
4926.1470716678132
 23
2280.400261648178
 33
0.0
  0
INSERT
  5
9E8
  8
0
  2
*U237
 10
0.0
 20
0.0
 30
0.0
  0
POINT
  5
9E9
  8
DEFPOINTS
 62
     0
 10
4380.0470716677773
 20
2127.6391046236799
 30
0.0
  0
POINT
  5
9EA
  8
DEFPOINTS
 62
     0
 10
4926.1470716678132
 20
2127.6391046236799
 30
0.0
  0
POINT
  5
9EB
  8
DEFPOINTS
 62
     0
 10
4926.1470716678132
 20
2280.400261648178
 30
0.0
  0
ENDBLK
  5
9E2
  8
0
  0
BLOCK
  8
0
  2
*D117
 70
     1
 10
0.0
 20
0.0
 30
0.0
  3
*D117
  1

  0
LINE
  5
9EF
  8
\U+6807\U+6CE8
 62
     0
 10
4390.0470716677773
 20
2142.639104623679
 30
0.0
 11
4323.5149449468408
 21
2142.639104623679
 31
0.0
  0
LINE
  5
9F0
  8
\U+6807\U+6CE8
 62
     0
 10
4390.0470716677773
 20
1736.239104623678
 30
0.0
 11
4323.5149449468408
 21
1736.239104623678
 31
0.0
  0
LINE
  5
9F1
  8
\U+6807\U+6CE8
 62
     0
 10
4333.5149449468399
 20
2130.639104623679
 30
0.0
 11
4333.5149449468399
 21
1748.239104623678
 31
0.0
  0
SOLID
  5
9F2
  8
\U+6807\U+6CE8
 62
     0
 10
4331.5149449468408
 20
2130.639104623679
 30
0.0
 11
4335.5149449468418
 21
2130.639104623679
 31
0.0
 12
4333.5149449468399
 22
2142.639104623679
 32
0.0
 13
4333.5149449468399
 23
2142.639104623679
 33
0.0
  0
SOLID
  5
9F3
  8
\U+6807\U+6CE8
 62
     0
 10
4331.5149449468408
 20
1748.239104623678
 30
0.0
 11
4335.514944946839
 21
1748.239104623678
 31
0.0
 12
4333.5149449468399
 22
1736.239104623678
 32
0.0
 13
4333.5149449468399
 23
1736.239104623678
 33
0.0
  0
INSERT
  5
9F4
  8
0
  2
*U238
 10
0.0
 20
0.0
 30
0.0
  0
POINT
  5
9F5
  8
DEFPOINTS
 62
     0
 10
4395.0470716677783
 20
2142.639104623679
 30
0.0
  0
POINT
  5
9F6
  8
DEFPOINTS
 62
     0
 10
4395.0470716677783
 20
1736.239104623678
 30
0.0
  0
POINT
  5
9F7
  8
DEFPOINTS
 62
     0
 10
4333.5149449468399
 20
1736.239104623678
 30
0.0
  0
ENDBLK
  5
9EE
  8
0
  0
BLOCK
  8
0
  2
*D118
 70
     1
 10
0.0
 20
0.0
 30
0.0
  3
*D118
  1

  0
LINE
  5
9FB
  8
\U+6807\U+6CE8
 62
     0
 10
4355.997071667789
 20
1540.738302606992
 30
0.0
 11
4312.2622352022827
 21
1540.738302606992
 31
0.0
  0
LINE
  5
9FC
  8
\U+6807\U+6CE8
 62
     0
 10
4403.1394376377966
 20
1312.138302606993
 30
0.0
 11
4312.2622352022827
 21
1312.138302606993
 31
0.0
  0
LINE
  5
9FD
  8
\U+6807\U+6CE8
 62
     0
 10
4322.2622352022809
 20
1528.738302606992
 30
0.0
 11
4322.2622352022809
 21
1324.138302606993
 31
0.0
  0
SOLID
  5
9FE
  8
\U+6807\U+6CE8
 62
     0
 10
4320.2622352022827
 20
1528.738302606992
 30
0.0
 11
4324.2622352022863
 21
1528.738302606992
 31
0.0
 12
4322.2622352022809
 22
1540.738302606992
 32
0.0
 13
4322.2622352022809
 23
1540.738302606992
 33
0.0
  0
SOLID
  5
9FF
  8
\U+6807\U+6CE8
 62
     0
 10
4320.2622352022827
 20
1324.138302606993
 30
0.0
 11
4324.2622352022863
 21
1324.138302606993
 31
0.0
 12
4322.2622352022809
 22
1312.138302606993
 32
0.0
 13
4322.2622352022809
 23
1312.138302606993
 33
0.0
  0
INSERT
  5
A00
  8
0
  2
*U239
 10
0.0
 20
0.0
 30
0.0
  0
POINT
  5
A01
  8
DEFPOINTS
 62
     0
 10
4360.997071667789
 20
1540.738302606992
 30
0.0
  0
POINT
  5
A02
  8
DEFPOINTS
 62
     0
 10
4408.1394376377984
 20
1312.138302606993
 30
0.0
  0
POINT
  5
A03
  8
DEFPOINTS
 62
     0
 10
4322.2622352022809
 20
1312.138302606993
 30
0.0
  0
ENDBLK
  5
9FA
  8
0
  0
BLOCK
  8
0
  2
*D119
 70
     1
 10
0.0
 20
0.0
 30
0.0
  3
*D119
  1

  0
LINE
  5
A07
  8
\U+6807\U+6CE8
 62
     0
 10
4648.0970716677948
 20
2142.639104623679
 30
0.0
 11
4488.3804314653489
 21
2142.639104623679
 31
0.0
  0
LINE
  5
A08
  8
\U+6807\U+6CE8
 62
     0
 10
4648.0970716677948
 20
2022.6391046236799
 30
0.0
 11
4488.3804314653489
 21
2022.6391046236799
 31
0.0
  0
LINE
  5
A09
  8
\U+6807\U+6CE8
 62
     0
 10
4498.3804314653507
 20
2130.639104623679
 30
0.0
 11
4498.380431465348
 21
2034.6391046236799
 31
0.0
  0
SOLID
  5
A0A
  8
\U+6807\U+6CE8
 62
     0
 10
4496.3804314653489
 20
2130.639104623679
 30
0.0
 11
4500.3804314653507
 21
2130.639104623679
 31
0.0
 12
4498.3804314653507
 22
2142.639104623679
 32
0.0
 13
4498.3804314653507
 23
2142.639104623679
 33
0.0
  0
SOLID
  5
A0B
  8
\U+6807\U+6CE8
 62
     0
 10
4496.3804314653489
 20
2034.6391046236799
 30
0.0
 11
4500.3804314653498
 21
2034.6391046236799
 31
0.0
 12
4498.380431465348
 22
2022.6391046236799
 32
0.0
 13
4498.380431465348
 23
2022.6391046236799
 33
0.0
  0
INSERT
  5
A0C
  8
0
  2
*U240
 10
0.0
 20
0.0
 30
0.0
  0
POINT
  5
A0D
  8
DEFPOINTS
 62
     0
 10
4653.0970716677948
 20
2142.639104623679
 30
0.0
  0
POINT
  5
A0E
  8
DEFPOINTS
 62
     0
 10
4653.0970716677948
 20
2022.6391046236799
 30
0.0
  0
POINT
  5
A0F
  8
DEFPOINTS
 62
     0
 10
4498.380431465348
 20
2022.6391046236799
 30
0.0
  0
ENDBLK
  5
A06
  8
0
  0
BLOCK
  8
0
  2
*D120
 70
     1
 10
0.0
 20
0.0
 30
0.0
  3
*D120
  1

  0
LINE
  5
A13
  8
\U+6807\U+6CE8
 62
     0
 10
4375.0470716677773
 20
2218.8391046236839
 30
0.0
 11
4323.4749449468618
 21
2218.8391046236839
 31
0.0
  0
LINE
  5
A14
  8
\U+6807\U+6CE8
 62
     0
 10
4390.0470716677773
 20
2142.639104623679
 30
0.0
 11
4323.4749449468618
 21
2142.639104623679
 31
0.0
  0
LINE
  5
A15
  8
\U+6807\U+6CE8
 62
     0
 10
4333.4749449468609
 20
2206.8391046236839
 30
0.0
 11
4333.4749449468609
 21
2154.639104623679
 31
0.0
  0
SOLID
  5
A16
  8
\U+6807\U+6CE8
 62
     0
 10
4331.4749449468618
 20
2206.8391046236839
 30
0.0
 11
4335.4749449468618
 21
2206.8391046236839
 31
0.0
 12
4333.4749449468609
 22
2218.8391046236839
 32
0.0
 13
4333.4749449468609
 23
2218.8391046236839
 33
0.0
  0
SOLID
  5
A17
  8
\U+6807\U+6CE8
 62
     0
 10
4331.4749449468618
 20
2154.639104623679
 30
0.0
 11
4335.4749449468618
 21
2154.639104623679
 31
0.0
 12
4333.4749449468609
 22
2142.639104623679
 32
0.0
 13
4333.4749449468609
 23
2142.639104623679
 33
0.0
  0
INSERT
  5
A18
  8
0
  2
*U241
 10
0.0
 20
0.0
 30
0.0
  0
POINT
  5
A19
  8
DEFPOINTS
 62
     0
 10
4380.0470716677773
 20
2218.8391046236839
 30
0.0
  0
POINT
  5
A1A
  8
DEFPOINTS
 62
     0
 10
4395.0470716677783
 20
2142.639104623679
 30
0.0
  0
POINT
  5
A1B
  8
DEFPOINTS
 62
     0
 10
4333.4749449468609
 20
2142.639104623679
 30
0.0
  0
ENDBLK
  5
A12
  8
0
  0
BLOCK
  8
0
  2
*D121
 70
     1
 10
0.0
 20
0.0
 30
0.0
  3
*D121
  1

  0
LINE
  5
A1F
  8
\U+6807\U+6CE8
 62
     0
 10
4390.0470716677773
 20
1736.239104623678
 30
0.0
 11
4323.5149449468408
 21
1736.239104623678
 31
0.0
  0
LINE
  5
A20
  8
\U+6807\U+6CE8
 62
     0
 10
4390.0470716677773
 20
1706.2391046236919
 30
0.0
 11
4323.5149449468408
 21
1706.2391046236919
 31
0.0
  0
LINE
  5
A21
  8
\U+6807\U+6CE8
 62
     0
 10
4333.5149449468399
 20
1748.239104623678
 30
0.0
 11
4333.5149449468399
 21
1760.239104623678
 31
0.0
  0
LINE
  5
A22
  8
\U+6807\U+6CE8
 62
     0
 10
4333.5149449468399
 20
1694.239104623693
 30
0.0
 11
4333.5149449468399
 21
1648.932437957026
 31
0.0
  0
LINE
  5
A23
  8
\U+6807\U+6CE8
 62
     0
 10
4333.5149449468399
 20
1736.239104623678
 30
0.0
 11
4333.5149449468399
 21
1706.2391046236919
 31
0.0
  0
SOLID
  5
A24
  8
\U+6807\U+6CE8
 62
     0
 10
4331.5149449468408
 20
1748.239104623678
 30
0.0
 11
4335.514944946839
 21
1748.239104623678
 31
0.0
 12
4333.5149449468399
 22
1736.239104623678
 32
0.0
 13
4333.5149449468399
 23
1736.239104623678
 33
0.0
  0
SOLID
  5
A25
  8
\U+6807\U+6CE8
 62
     0
 10
4331.5149449468408
 20
1694.239104623693
 30
0.0
 11
4335.514944946839
 21
1694.239104623693
 31
0.0
 12
4333.5149449468399
 22
1706.2391046236919
 32
0.0
 13
4333.5149449468399
 23
1706.2391046236919
 33
0.0
  0
INSERT
  5
A26
  8
0
  2
*U242
 10
0.0
 20
0.0
 30
0.0
  0
POINT
  5
A27
  8
DEFPOINTS
 62
     0
 10
4395.0470716677783
 20
1736.239104623678
 30
0.0
  0
POINT
  5
A28
  8
DEFPOINTS
 62
     0
 10
4395.0470716677783
 20
1706.2391046236919
 30
0.0
  0
POINT
  5
A29
  8
DEFPOINTS
 62
     0
 10
4333.5149449468399
 20
1706.2391046236919
 30
0.0
  0
ENDBLK
  5
A1E
  8
0
  0
BLOCK
  8
0
  2
*D122
 70
     1
 10
0.0
 20
0.0
 30
0.0
  3
*D122
  1

  0
LINE
  5
AB0
  8
\U+6807\U+6CE8
 62
     0
 10
4427.8786094166362
 20
2076.1603243064742
 30
0.0
 11
4393.4339170288413
 21
2130.168478480934
 31
0.0
  0
INSERT
  5
AB1
  8
0
  2
*U255
 10
0.0
 20
0.0
 30
0.0
  0
SOLID
  5
AB2
  8
\U+6807\U+6CE8
 62
     0
 10
4395.1201662671147
 20
2131.2439149069578
 30
0.0
 11
4391.747667790567
 21
2129.0930420549098
 31
0.0
 12
4386.9812984726959
 22
2140.2859739105811
 32
0.0
 13
4386.9812984726959
 23
2140.2859739105811
 33
0.0
  0
POINT
  5
AB3
  8
DEFPOINTS
 62
     0
 10
4386.9812984726959
 20
2140.2859739105811
 30
0.0
  0
POINT
  5
AB4
  8
DEFPOINTS
 62
     0
 10
4395.0470716677746
 20
2127.639104623679
 30
0.0
  0
ENDBLK
  5
A2C
  8
0
  0
BLOCK
  8
0
  2
*D123
 70
     1
 10
0.0
 20
0.0
 30
0.0
  3
*D123
  1

  0
LINE
  5
AC0
  8
\U+6807\U+6CE8
 62
     0
 10
4456.5504999705054
 20
1364.3450726586309
 30
0.0
 11
4405.760793957279
 21
1325.3101739894551
 31
0.0
  0
INSERT
  5
AC1
  8
0
  2
*U257
 10
0.0
 20
0.0
 30
0.0
  0
SOLID
  5
AC2
  8
\U+6807\U+6CE8
 62
     0
 10
4404.5420415456629
 20
1326.895936443035
 30
0.0
 11
4406.9795463688924
 21
1323.724411535876
 31
0.0
 12
4396.2462192358034
 22
1317.9976595197641
 32
0.0
 13
4396.2462192358034
 23
1317.9976595197641
 33
0.0
  0
POINT
  5
AC3
  8
DEFPOINTS
 62
     0
 10
4396.2462192358034
 20
1317.9976595197641
 30
0.0
  0
POINT
  5
AC4
  8
DEFPOINTS
 62
     0
 10
4408.1394376377993
 20
1327.1383026069941
 30
0.0
  0
ENDBLK
  5
A34
  8
0
  0
BLOCK
  8
0
  2
*D124
 70
     1
 10
0.0
 20
0.0
 30
0.0
  3
*D124
  1

  0
LINE
  5
AB5
  8
\U+6807\U+6CE8
 62
     0
 10
4350.0470716677773
 20
1852.3626579954921
 30
0.0
 11
4350.0470716677773
 21
1818.053871401449
 31
0.0
  0
LINE
  5
AB6
  8
\U+6807\U+6CE8
 62
     0
 10
4380.0470716677773
 20
1882.362657995491
 30
0.0
 11
4380.0470716677773
 21
1818.053871401449
 31
0.0
  0
LINE
  5
AB7
  8
\U+6807\U+6CE8
 62
     0
 10
4338.0470716677773
 20
1828.053871401449
 30
0.0
 11
4326.0470716677773
 21
1828.053871401449
 31
0.0
  0
LINE
  5
AB8
  8
\U+6807\U+6CE8
 62
     0
 10
4392.0470716677783
 20
1828.053871401449
 30
0.0
 11
4437.3537383344437
 21
1828.053871401449
 31
0.0
  0
LINE
  5
AB9
  8
\U+6807\U+6CE8
 62
     0
 10
4350.0470716677773
 20
1828.053871401449
 30
0.0
 11
4380.0470716677773
 21
1828.053871401449
 31
0.0
  0
SOLID
  5
ABA
  8
\U+6807\U+6CE8
 62
     0
 10
4338.0470716677773
 20
1830.053871401449
 30
0.0
 11
4338.0470716677773
 21
1826.053871401449
 31
0.0
 12
4350.0470716677773
 22
1828.053871401449
 32
0.0
 13
4350.0470716677773
 23
1828.053871401449
 33
0.0
  0
SOLID
  5
ABB
  8
\U+6807\U+6CE8
 62
     0
 10
4392.0470716677783
 20
1830.053871401449
 30
0.0
 11
4392.0470716677783
 21
1826.053871401449
 31
0.0
 12
4380.0470716677773
 22
1828.053871401449
 32
0.0
 13
4380.0470716677773
 23
1828.053871401449
 33
0.0
  0
INSERT
  5
ABC
  8
0
  2
*U256
 10
0.0
 20
0.0
 30
0.0
  0
POINT
  5
ABD
  8
DEFPOINTS
 62
     0
 10
4350.0470716677773
 20
1857.362657995491
 30
0.0
  0
POINT
  5
ABE
  8
DEFPOINTS
 62
     0
 10
4380.0470716677773
 20
1887.362657995491
 30
0.0
  0
POINT
  5
ABF
  8
DEFPOINTS
 62
     0
 10
4380.0470716677773
 20
1828.053871401449
 30
0.0
  0
ENDBLK
  5
A3C
  8
0
  0
BLOCK
  8
0
  2
*D125
 70
     1
 10
0.0
 20
0.0
 30
0.0
  3
*D125
  1

  0
LINE
  5
A4B
  8
\U+6807\U+6CE8
 62
     0
 10
4350.0470716677773
 20
2218.8391046236839
 30
0.0
 11
4350.0470716677773
 21
2331.4340183446229
 31
0.0
  0
LINE
  5
A4C
  8
\U+6807\U+6CE8
 62
     0
 10
4956.1470716678123
 20
2191.6473008025541
 30
0.0
 11
4956.1470716678123
 21
2331.4340183446229
 31
0.0
  0
LINE
  5
A4D
  8
\U+6807\U+6CE8
 62
     0
 10
4362.0470716677773
 20
2321.4340183446229
 30
0.0
 11
4944.1470716678132
 21
2321.4340183446229
 31
0.0
  0
SOLID
  5
A4E
  8
\U+6807\U+6CE8
 62
     0
 10
4362.0470716677773
 20
2323.4340183446229
 30
0.0
 11
4362.0470716677773
 21
2319.4340183446229
 31
0.0
 12
4350.0470716677773
 22
2321.4340183446229
 32
0.0
 13
4350.0470716677773
 23
2321.4340183446229
 33
0.0
  0
SOLID
  5
A4F
  8
\U+6807\U+6CE8
 62
     0
 10
4944.1470716678132
 20
2323.4340183446229
 30
0.0
 11
4944.1470716678132
 21
2319.4340183446229
 31
0.0
 12
4956.1470716678123
 22
2321.4340183446229
 32
0.0
 13
4956.1470716678123
 23
2321.4340183446229
 33
0.0
  0
INSERT
  5
A50
  8
0
  2
*U243
 10
0.0
 20
0.0
 30
0.0
  0
POINT
  5
A51
  8
DEFPOINTS
 62
     0
 10
4350.0470716677773
 20
2213.8391046236839
 30
0.0
  0
POINT
  5
A52
  8
DEFPOINTS
 62
     0
 10
4956.1470716678123
 20
2186.6473008025541
 30
0.0
  0
POINT
  5
A53
  8
DEFPOINTS
 62
     0
 10
4956.1470716678123
 20
2321.4340183446229
 30
0.0
  0
ENDBLK
  5
A4A
  8
0
  0
BLOCK
  8
0
  2
*D126
 70
     1
 10
0.0
 20
0.0
 30
0.0
  3
*D126
  1

  0
LINE
  5
A57
  8
\U+6807\U+6CE8
 62
     0
 10
4370.0470716677773
 20
2218.8391046236839
 30
0.0
 11
4273.9190833883313
 21
2218.8391046236839
 31
0.0
  0
LINE
  5
A58
  8
\U+6807\U+6CE8
 62
     0
 10
4370.0470716677773
 20
1706.239104623678
 30
0.0
 11
4273.9190833883276
 21
1706.239104623678
 31
0.0
  0
LINE
  5
A59
  8
\U+6807\U+6CE8
 62
     0
 10
4283.9190833883295
 20
2206.8391046236839
 30
0.0
 11
4283.9190833883295
 21
1718.239104623678
 31
0.0
  0
SOLID
  5
A5A
  8
\U+6807\U+6CE8
 62
     0
 10
4281.9190833883304
 20
2206.8391046236839
 30
0.0
 11
4285.9190833883276
 21
2206.8391046236839
 31
0.0
 12
4283.9190833883295
 22
2218.8391046236839
 32
0.0
 13
4283.9190833883295
 23
2218.8391046236839
 33
0.0
  0
SOLID
  5
A5B
  8
\U+6807\U+6CE8
 62
     0
 10
4281.9190833883304
 20
1718.239104623678
 30
0.0
 11
4285.9190833883276
 21
1718.239104623678
 31
0.0
 12
4283.9190833883295
 22
1706.239104623678
 32
0.0
 13
4283.9190833883295
 23
1706.239104623678
 33
0.0
  0
INSERT
  5
A5C
  8
0
  2
*U244
 10
0.0
 20
0.0
 30
0.0
  0
POINT
  5
A5D
  8
DEFPOINTS
 62
     0
 10
4375.0470716677773
 20
2218.8391046236839
 30
0.0
  0
POINT
  5
A5E
  8
DEFPOINTS
 62
     0
 10
4375.0470716677773
 20
1706.239104623678
 30
0.0
  0
POINT
  5
A5F
  8
DEFPOINTS
 62
     0
 10
4283.9190833883295
 20
1706.239104623678
 30
0.0
  0
ENDBLK
  5
A56
  8
0
  0
BLOCK
  8
0
  2
*D127
 70
     1
 10
0.0
 20
0.0
 30
0.0
  3
*D127
  1

  0
LINE
  5
AC5
  8
\U+6807\U+6CE8
 62
     0
 10
4749.1301278912188
 20
2083.2729044403509
 30
0.0
 11
4674.7527387475302
 21
2159.457308408495
 31
0.0
  0
LINE
  5
AC6
  8
\U+6807\U+6CE8
 62
     0
 10
4631.4414045880467
 20
2203.8209008388621
 30
0.0
 11
4623.0585657184702
 21
2212.4074025995751
 31
0.0
  0
INSERT
  5
AC7
  8
0
  2
*U258
 10
0.0
 20
0.0
 30
0.0
  0
LINE
  5
AC8
  8
\U+6807\U+6CE8
 62
     0
 10
4639.8242434576196
 20
2195.2343990781478
 30
0.0
 11
4666.3698998779528
 21
2168.043810169208
 31
0.0
  0
SOLID
  5
AC9
  8
\U+6807\U+6CE8
 62
     0
 10
4632.8724882148308
 20
2205.2180406504581
 30
0.0
 11
4630.0103209612598
 21
2202.4237610272662
 31
0.0
 12
4639.8242434576196
 22
2195.2343990781478
 32
0.0
 13
4639.8242434576196
 23
2195.2343990781478
 33
0.0
  0
SOLID
  5
ACA
  8
\U+6807\U+6CE8
 62
     0
 10
4676.1838223743162
 20
2160.8544482200891
 30
0.0
 11
4673.3216551207452
 21
2158.0601685968982
 31
0.0
 12
4666.3698998779528
 22
2168.043810169208
 32
0.0
 13
4666.3698998779528
 23
2168.043810169208
 33
0.0
  0
POINT
  5
ACB
  8
DEFPOINTS
 62
     0
 10
4666.3698998779528
 20
2168.043810169208
 30
0.0
  0
POINT
  5
ACC
  8
DEFPOINTS
 62
     0
 10
4639.8242434576196
 20
2195.2343990781478
 30
0.0
  0
ENDBLK
  5
A62
  8
0
  0
BLOCK
  8
0
  2
*D128
 70
     1
 10
0.0
 20
0.0
 30
0.0
  3
*D128
  1

  0
LINE
  5
AA1
  8
\U+5916\U+6846\U+7EBF1
 62
     0
 10
1907.8906661790129
 20
1309.4797510049559
 30
0.0
 11
1860.3206420350521
 21
1274.917737132165
 31
0.0
  0
INSERT
  5
AA2
  8
0
  2
*U253
 10
0.0
 20
0.0
 30
0.0
  0
LINE
  5
AA3
  8
\U+5916\U+6846\U+7EBF1
 62
     0
 10
1838.477263601653
 20
1259.0474246395941
 30
0.0
 11
1850.6124738424071
 21
1267.864264913228
 31
0.0
  0
SOLID
  5
AA4
  8
\U+5916\U+6846\U+7EBF1
 62
     0
 10
1859.1450633318959
 20
1276.5357651642721
 30
0.0
 11
1861.4962207382091
 21
1273.299709100057
 31
0.0
 12
1850.6124738424071
 22
1267.864264913228
 32
0.0
 13
1850.6124738424071
 23
1267.864264913228
 33
0.0
  0
ARC
  5
AA5
  8
\U+5916\U+6846\U+7EBF1
 62
     0
 10
1838.477263601653
 20
1259.0474246395941
 30
0.0
 40
14.999999999935881
 50
289.09859317110909
 51
74.197476660219863
  0
POINT
  5
AA6
  8
DEFPOINTS
 62
     0
 10
1850.6124738424071
 20
1267.864264913228
 30
0.0
  0
POINT
  5
AA7
  8
DEFPOINTS
 62
     0
 10
1838.477263601653
 20
1259.0474246395941
 30
0.0
  0
ENDBLK
  5
A6D
  8
0
  0
BLOCK
  8
0
  2
GENAXEH
 70
     0
 10
0.0
 20
0.0
 30
0.0
  3
GENAXEH
  1

  0
LINE
  5
B43
  8
0
 10
-1.0
 20
0.0
 30
0.0
 11
1.0
 21
0.0
 31
0.0
  0
ENDBLK
  5
B45
  8
0
  0
BLOCK
  8
0
  2
*U131
 70
     1
 10
0.0
 20
0.0
 30
0.0
  3
*U131
  1

  0
TEXT
  5
EEF
  8
\U+6807\U+6CE8
 62
     0
 10
102814.3626453024
 20
-53481.067281969881
 30
0.0
 40
23.0
  1
646
  0
ENDBLK
  5
EF1
  8
0
  0
BLOCK
  8
0
  2
*U132
 70
     1
 10
0.0
 20
0.0
 30
0.0
  3
*U132
  1

  0
TEXT
  5
EF3
  8
\U+6807\U+6CE8
 62
     0
 10
102441.6005389304
 20
-53492.703594842897
 30
0.0
 40
18.399999999999999
  1
20
 50
90.0
  0
ENDBLK
  5
EF5
  8
0
  0
BLOCK
  8
0
  2
*U133
 70
     1
 10
0.0
 20
0.0
 30
0.0
  3
*U133
  1

  0
TEXT
  5
EF7
  8
\U+6807\U+6CE8
 62
     0
 10
102546.6428833977
 20
-53781.751597510171
 30
0.0
 40
18.399999999999999
  1
20
  0
ENDBLK
  5
EF9
  8
0
  0
BLOCK
  8
0
  2
*U134
 70
     1
 10
0.0
 20
0.0
 30
0.0
  3
*U134
  1

  0
TEXT
  5
EFB
  8
\U+6807\U+6CE8
 62
     0
 10
102390.91427279099
 20
-53787.603277382623
 30
0.0
 40
23.0
  1
446.4
 50
90.0
  0
ENDBLK
  5
EFD
  8
0
  0
BLOCK
  8
0
  2
*U135
 70
     1
 10
0.0
 20
0.0
 30
0.0
  3
*U135
  1

  0
TEXT
  5
EFF
  8
\U+6807\U+6CE8
 62
     0
 10
105244.8949865054
 20
-53808.925222721373
 30
0.0
 40
18.399999999999999
  1
20
  0
ENDBLK
  5
F01
  8
0
  0
BLOCK
  8
0
  2
*U136
 70
     1
 10
0.0
 20
0.0
 30
0.0
  3
*U136
  1

  0
TEXT
  5
F03
  8
\U+6807\U+6CE8
 62
     0
 10
102440.3505389304
 20
-53787.603277382623
 30
0.0
 40
23.0
  1
406.4
 50
90.0
  0
ENDBLK
  5
F05
  8
0
  0
BLOCK
  8
0
  2
*U137
 70
     1
 10
0.0
 20
0.0
 30
0.0
  3
*U137
  1

  0
TEXT
  5
F07
  8
\U+6807\U+6CE8
 62
     0
 10
102428.30900863709
 20
-54295.241651464246
 30
0.0
 40
23.0
  1
228.6
 50
90.0
  0
ENDBLK
  5
F09
  8
0
  0
BLOCK
  8
0
  2
*U138
 70
     1
 10
0.0
 20
0.0
 30
0.0
  3
*U138
  1

  0
TEXT
  5
F0B
  8
\U+6807\U+6CE8
 62
     0
 10
102726.2457138054
 20
-53623.95883293818
 30
0.0
 40
18.399999999999999
  1
120
 50
90.0
  0
ENDBLK
  5
F0D
  8
0
  0
BLOCK
  8
0
  2
*U139
 70
     1
 10
0.0
 20
0.0
 30
0.0
  3
*U139
  1

  0
TEXT
  5
F0F
  8
\U+6807\U+6CE8
 62
     0
 10
102546.4797151591
 20
-53569.47623156412
 30
0.0
 40
18.399999999999999
  1
R15
 50
309.81563228131921
  0
ENDBLK
  5
F11
  8
0
  0
BLOCK
  8
0
  2
*U140
 70
     1
 10
0.0
 20
0.0
 30
0.0
  3
*U140
  1

  0
TEXT
  5
F13
  8
\U+6807\U+6CE8
 62
     0
 10
102552.91694017249
 20
-54336.796149396818
 30
0.0
 40
18.399999999999999
  1
R15
 50
46.749999999538637
  0
ENDBLK
  5
F15
  8
0
  0
BLOCK
  8
0
  2
*U141
 70
     1
 10
0.0
 20
0.0
 30
0.0
  3
*U141
  1

  0
TEXT
  5
F17
  8
\U+6807\U+6CE8
 62
     0
 10
102814.3626453024
 20
-53429.881653018259
 30
0.0
 40
23.0
  1
686
  0
ENDBLK
  5
F19
  8
0
  0
BLOCK
  8
0
  2
*U142
 70
     1
 10
0.0
 20
0.0
 30
0.0
  3
*U142
  1

  0
TEXT
  5
F1B
  8
\U+6807\U+6CE8
 62
     0
 10
105454.9853039658
 20
-53429.692602401752
 30
0.0
 40
18.399999999999999
  1
546.1
  0
ENDBLK
  5
F1D
  8
0
  0
BLOCK
  8
0
  2
*U143
 70
     1
 10
0.0
 20
0.0
 30
0.0
  3
*U143
  1

  0
TEXT
  5
F1F
  8
\U+6807\U+6CE8
 62
     0
 10
105162.55206613379
 20
-53721.819130523087
 30
0.0
 40
18.399999999999999
  1
406.4
 50
90.0
  0
ENDBLK
  5
F21
  8
0
  0
BLOCK
  8
0
  2
*U144
 70
     1
 10
0.0
 20
0.0
 30
0.0
  3
*U144
  1

  0
TEXT
  5
F23
  8
\U+6807\U+6CE8
 62
     0
 10
105151.29935638919
 20
-54234.81993253978
 30
0.0
 40
18.399999999999999
  1
228.6
 50
90.0
  0
ENDBLK
  5
F25
  8
0
  0
BLOCK
  8
0
  2
*U145
 70
     1
 10
0.0
 20
0.0
 30
0.0
  3
*U145
  1

  0
TEXT
  5
F27
  8
\U+6807\U+6CE8
 62
     0
 10
105382.0665832603
 20
-53566.352463856427
 30
0.0
 40
18.399999999999999
  1
120
 50
90.0
  0
ENDBLK
  5
F29
  8
0
  0
BLOCK
  8
0
  2
*U146
 70
     1
 10
0.0
 20
0.0
 30
0.0
  3
*U146
  1

  0
TEXT
  5
F2B
  8
\U+6807\U+6CE8
 62
     0
 10
105139.11206613381
 20
-53542.887701951651
 30
0.0
 40
18.399999999999999
  1
20
 50
90.0
  0
ENDBLK
  5
F2D
  8
0
  0
BLOCK
  8
0
  2
*U147
 70
     1
 10
0.0
 20
0.0
 30
0.0
  3
*U147
  1

  0
TEXT
  5
F2F
  8
\U+6807\U+6CE8
 62
     0
 10
105243.21499839
 20
-53513.7661110068
 30
0.0
 40
18.399999999999999
  1
R15
 50
302.528442397324
  0
ENDBLK
  5
F31
  8
0
  0
BLOCK
  8
0
  2
*U148
 70
     1
 10
0.0
 20
0.0
 30
0.0
  3
*U148
  1

  0
TEXT
  5
F33
  8
\U+6807\U+6CE8
 62
     0
 10
105253.7499042009
 20
-54286.20790496526
 30
0.0
 40
18.399999999999999
  1
R15
 50
37.544412238669693
  0
ENDBLK
  5
F35
  8
0
  0
BLOCK
  8
0
  2
*U149
 70
     1
 10
0.0
 20
0.0
 30
0.0
  3
*U149
  1

  0
TEXT
  5
F37
  8
\U+6807\U+6CE8
 62
     0
 10
105454.9853039658
 20
-53378.359118915039
 30
0.0
 40
18.399999999999999
  1
586.1
  0
ENDBLK
  5
F39
  8
0
  0
BLOCK
  8
0
  2
*U150
 70
     1
 10
0.0
 20
0.0
 30
0.0
  3
*U150
  1

  0
TEXT
  5
F3B
  8
\U+6807\U+6CE8
 62
     0
 10
105100.50868203701
 20
-53721.819130523087
 30
0.0
 40
18.399999999999999
  1
446.4
 50
90.0
  0
ENDBLK
  5
F3D
  8
0
  0
BLOCK
  8
0
  2
*U151
 70
     1
 10
0.0
 20
0.0
 30
0.0
  3
*U151
  1

  0
TEXT
  5
F3F
  8
\U+6807\U+6CE8
 62
     0
 10
109126.49674860611
 20
-53213.438296020038
 30
0.0
 40
18.399999999999999
  1
70
 50
90.0
  0
ENDBLK
  5
F41
  8
0
  0
BLOCK
  8
0
  2
*U152
 70
     1
 10
0.0
 20
0.0
 30
0.0
  3
*U152
  1

  0
TEXT
  5
F43
  8
\U+6807\U+6CE8
 62
     0
 10
108611.03474806481
 20
-53554.430822001188
 30
0.0
 40
18.399999999999999
  1
20
  0
ENDBLK
  5
F45
  8
0
  0
BLOCK
  8
0
  2
*U153
 70
     1
 10
0.0
 20
0.0
 30
0.0
  3
*U153
  1

  0
TEXT
  5
F47
  8
\U+6807\U+6CE8
 62
     0
 10
109096.5554469401
 20
-53404.439201583467
 30
0.0
 40
18.399999999999999
  1
20
 50
90.0
  0
ENDBLK
  5
F49
  8
0
  0
BLOCK
  8
0
  2
*U154
 70
     1
 10
0.0
 20
0.0
 30
0.0
  3
*U154
  1

  0
TEXT
  5
F4B
  8
\U+6807\U+6CE8
 62
     0
 10
108884.1351564433
 20
-53334.439201583467
 30
0.0
 40
18.399999999999999
  1
20
 50
90.0
  0
ENDBLK
  5
F4D
  8
0
  0
BLOCK
  8
0
  2
*U155
 70
     1
 10
0.0
 20
0.0
 30
0.0
  3
*U155
  1

  0
TEXT
  5
F4F
  8
\U+6807\U+6CE8
 62
     0
 10
108512.1378494447
 20
-54203.99135145099
 30
0.0
 40
18.399999999999999
  1
228.6
 50
90.0
  0
ENDBLK
  5
F51
  8
0
  0
BLOCK
  8
0
  2
*U156
 70
     1
 10
0.0
 20
0.0
 30
0.0
  3
*U156
  1

  0
TEXT
  5
F53
  8
\U+6807\U+6CE8
 62
     0
 10
108760.8017321918
 20
-53806.86291939512
 30
0.0
 40
18.399999999999999
  1
400
  0
ENDBLK
  5
F55
  8
0
  0
BLOCK
  8
0
  2
*U157
 70
     1
 10
0.0
 20
0.0
 30
0.0
  3
*U157
  1

  0
TEXT
  5
F57
  8
\U+6807\U+6CE8
 62
     0
 10
109150.4950655252
 20
-53806.86291939512
 30
0.0
 40
18.399999999999999
  1
330
  0
ENDBLK
  5
F59
  8
0
  0
BLOCK
  8
0
  2
*U158
 70
     1
 10
0.0
 20
0.0
 30
0.0
  3
*U158
  1

  0
TEXT
  5
F5B
  8
\U+6807\U+6CE8
 62
     0
 10
108524.326772888
 20
-53531.881741265999
 30
0.0
 40
18.399999999999999
  1
470
 50
90.0
  0
ENDBLK
  5
F5D
  8
0
  0
BLOCK
  8
0
  2
*U159
 70
     1
 10
0.0
 20
0.0
 30
0.0
  3
*U159
  1

  0
TEXT
  5
F5F
  8
\U+6807\U+6CE8
 62
     0
 10
109399.9629515183
 20
-53566.881741266006
 30
0.0
 40
18.399999999999999
  1
400
 50
90.0
  0
ENDBLK
  5
F61
  8
0
  0
BLOCK
  8
0
  2
*U160
 70
     1
 10
0.0
 20
0.0
 30
0.0
  3
*U160
  1

  0
TEXT
  5
F63
  8
\U+6807\U+6CE8
 62
     0
 10
109381.3741777432
 20
-54179.306907006561
 30
0.0
 40
18.399999999999999
  1
177.8
 50
90.0
  0
ENDBLK
  5
F65
  8
0
  0
BLOCK
  8
0
  2
*U161
 70
     1
 10
0.0
 20
0.0
 30
0.0
  3
*U161
  1

  0
TEXT
  5
F67
  8
\U+6807\U+6CE8
 62
     0
 10
109036.1880813982
 20
-53507.459519043812
 30
0.0
 40
18.399999999999999
  1
25
  0
ENDBLK
  5
F69
  8
0
  0
BLOCK
  8
0
  2
*U162
 70
     1
 10
0.0
 20
0.0
 30
0.0
  3
*U162
  1

  0
TEXT
  5
F6B
  8
\U+6807\U+6CE8
 62
     0
 10
108691.6146932112
 20
-53357.903963488243
 30
0.0
 40
18.399999999999999
  1
120
 50
90.0
  0
ENDBLK
  5
F6D
  8
0
  0
BLOCK
  8
0
  2
*U163
 70
     1
 10
0.0
 20
0.0
 30
0.0
  3
*U163
  1

  0
TEXT
  5
F6F
  8
\U+6807\U+6CE8
 62
     0
 10
109268.80062670889
 20
-53427.903963488243
 30
0.0
 40
18.399999999999999
  1
120
 50
90.0
  0
ENDBLK
  5
F71
  8
0
  0
BLOCK
  8
0
  2
*U164
 70
     1
 10
0.0
 20
0.0
 30
0.0
  3
*U164
  1

  0
TEXT
  5
F73
  8
\U+6807\U+6CE8
 62
     0
 10
108611.91244635409
 20
-53301.760294350119
 30
0.0
 40
18.399999999999999
  1
R15
 50
315.69689450070928
  0
ENDBLK
  5
F75
  8
0
  0
BLOCK
  8
0
  2
*U165
 70
     1
 10
0.0
 20
0.0
 30
0.0
  3
*U165
  1

  0
TEXT
  5
F77
  8
\U+6807\U+6CE8
 62
     0
 10
109278.2442718744
 20
-53618.746681485078
 30
0.0
 40
18.399999999999999
  1
20
  0
ENDBLK
  5
F79
  8
0
  0
BLOCK
  8
0
  2
*U166
 70
     1
 10
0.0
 20
0.0
 30
0.0
  3
*U166
  1

  0
TEXT
  5
F7B
  8
\U+6807\U+6CE8
 62
     0
 10
108617.78588429021
 20
-54253.986942176023
 30
0.0
 40
18.399999999999999
  1
R15
 50
45.115748386751072
  0
ENDBLK
  5
F7D
  8
0
  0
BLOCK
  8
0
  2
*U167
 70
     1
 10
0.0
 20
0.0
 30
0.0
  3
*U167
  1

  0
TEXT
  5
F7F
  8
\U+6807\U+6CE8
 62
     0
 10
108938.0972877474
 20
-53855.380752407553
 30
0.0
 40
18.399999999999999
  1
795
  0
ENDBLK
  5
F81
  8
0
  0
BLOCK
  8
0
  2
*U168
 70
     1
 10
0.0
 20
0.0
 30
0.0
  3
*U168
  1

  0
TEXT
  5
F83
  8
\U+6807\U+6CE8
 62
     0
 10
108457.6808767145
 20
-53532.188407932663
 30
0.0
 40
18.399999999999999
  1
510
 50
90.0
  0
ENDBLK
  5
F85
  8
0
  0
BLOCK
  8
0
  2
*U169
 70
     1
 10
0.0
 20
0.0
 30
0.0
  3
*U169
  1

  0
TEXT
  5
F87
  8
\U+6807\U+6CE8
 62
     0
 10
109465.24324757561
 20
-53566.881741266006
 30
0.0
 40
18.399999999999999
  1
440
 50
90.0
  0
ENDBLK
  5
F89
  8
0
  0
BLOCK
  8
0
  2
*U170
 70
     1
 10
0.0
 20
0.0
 30
0.0
  3
*U170
  1

  0
TEXT
  5
F8B
  8
\U+6807\U+6CE8
 62
     0
 10
109068.2433586673
 20
-54102.360240339891
 30
0.0
 40
18.399999999999999
  1
65
 50
90.0
  0
ENDBLK
  5
F8D
  8
0
  0
BLOCK
  8
0
  2
*U171
 70
     1
 10
0.0
 20
0.0
 30
0.0
  3
*U171
  1

  0
TEXT
  5
F8F
  8
\U+6807\U+6CE8
 62
     0
 10
102962.7508963282
 20
-56687.672457333181
 30
0.0
 40
23.0
  1
646
  0
ENDBLK
  5
F91
  8
0
  0
BLOCK
  8
0
  2
*U172
 70
     1
 10
0.0
 20
0.0
 30
0.0
  3
*U172
  1

  0
TEXT
  5
F93
  8
\U+6807\U+6CE8
 62
     0
 10
102602.0589024433
 20
-56841.456272000723
 30
0.0
 40
18.399999999999999
  1
76.2
 50
90.0
  0
ENDBLK
  5
F95
  8
0
  0
BLOCK
  8
0
  2
*U173
 70
     1
 10
0.0
 20
0.0
 30
0.0
  3
*U173
  1

  0
TEXT
  5
F97
  8
\U+6807\U+6CE8
 62
     0
 10
102602.0589024433
 20
-57346.869287873742
 30
0.0
 40
18.399999999999999
  1
30
 50
90.0
  0
ENDBLK
  5
F99
  8
0
  0
BLOCK
  8
0
  2
*U174
 70
     1
 10
0.0
 20
0.0
 30
0.0
  3
*U174
  1

  0
TEXT
  5
F9B
  8
\U+6807\U+6CE8
 62
     0
 10
102546.9428775066
 20
-57074.504049778487
 30
0.0
 40
23.0
  1
512.6
 50
90.0
  0
ENDBLK
  5
F9D
  8
0
  0
BLOCK
  8
0
  2
*U175
 70
     1
 10
0.0
 20
0.0
 30
0.0
  3
*U175
  1

  0
TEXT
  5
F9F
  8
\U+6807\U+6CE8
 62
     0
 10
102600.8089024433
 20
-57097.476272000727
 30
0.0
 40
23.0
  1
406.4
 50
90.0
  0
ENDBLK
  5
FA1
  8
0
  0
BLOCK
  8
0
  2
*U176
 70
     1
 10
0.0
 20
0.0
 30
0.0
  3
*U176
  1

  0
TEXT
  5
FA3
  8
\U+6807\U+6CE8
 62
     0
 10
102576.69725966291
 20
-57605.114646082322
 30
0.0
 40
23.0
  1
228.6
 50
90.0
  0
ENDBLK
  5
FA5
  8
0
  0
BLOCK
  8
0
  2
*U177
 70
     1
 10
0.0
 20
0.0
 30
0.0
  3
*U177
  1

  0
TEXT
  5
FA7
  8
\U+6807\U+6CE8
 62
     0
 10
102834.4333349736
 20
-56933.831827556271
 30
0.0
 40
18.399999999999999
  1
120
 50
90.0
  0
ENDBLK
  5
FA9
  8
0
  0
BLOCK
  8
0
  2
*U178
 70
     1
 10
0.0
 20
0.0
 30
0.0
  3
*U178
  1

  0
TEXT
  5
FAB
  8
\U+6807\U+6CE8
 62
     0
 10
102694.8679661848
 20
-56879.349226181846
 30
0.0
 40
18.399999999999999
  1
R15
 50
309.81563228215902
  0
ENDBLK
  5
FAD
  8
0
  0
BLOCK
  8
0
  2
*U179
 70
     1
 10
0.0
 20
0.0
 30
0.0
  3
*U179
  1

  0
TEXT
  5
FAF
  8
\U+6807\U+6CE8
 62
     0
 10
102694.9289122013
 20
-57068.524592128277
 30
0.0
 40
18.399999999999999
  1
30
  0
ENDBLK
  5
FB1
  8
0
  0
BLOCK
  8
0
  2
*U180
 70
     1
 10
0.0
 20
0.0
 30
0.0
  3
*U180
  1

  0
TEXT
  5
FB3
  8
\U+6807\U+6CE8
 62
     0
 10
102962.4953407727
 20
-56645.615630964399
 30
0.0
 40
23.0
  1
706
  0
ENDBLK
  5
FB5
  8
0
  0
BLOCK
  8
0
  2
*U181
 70
     1
 10
0.0
 20
0.0
 30
0.0
  3
*U181
  1

  0
TEXT
  5
FB8
  8
\U+6807\U+6CE8
 62
     0
 10
103037.38215652409
 20
-56873.127989849119
 30
0.0
 40
18.399999999999999
  1
Ø
 50
306.76116347705909
  0
TEXT
  5
FB9
  8
\U+6807\U+6CE8
 62
     0
 10
103049.3481781078
 20
-56889.145925245059
 30
0.0
 40
18.399999999999999
  1
38
 50
306.76116347705909
  0
ENDBLK
  5
FBB
  8
0
  0
BLOCK
  8
0
  2
*U182
 70
     1
 10
0.0
 20
0.0
 30
0.0
  3
*U182
  1

  0
TEXT
  5
FBD
  8
\U+6807\U+6CE8
 62
     0
 10
105474.7836259199
 20
-56637.172920184879
 30
0.0
 40
18.399999999999999
  1
546.1
  0
ENDBLK
  5
FBF
  8
0
  0
BLOCK
  8
0
  2
*U183
 70
     1
 10
0.0
 20
0.0
 30
0.0
  3
*U183
  1

  0
TEXT
  5
FC1
  8
\U+6807\U+6CE8
 62
     0
 10
105182.3503880879
 20
-57015.845188320483
 30
0.0
 40
18.399999999999999
  1
406.4
 50
90.0
  0
ENDBLK
  5
FC3
  8
0
  0
BLOCK
  8
0
  2
*U184
 70
     1
 10
0.0
 20
0.0
 30
0.0
  3
*U184
  1

  0
TEXT
  5
FC5
  8
\U+6807\U+6CE8
 62
     0
 10
105171.0976783434
 20
-57528.845990337169
 30
0.0
 40
18.399999999999999
  1
228.6
 50
90.0
  0
ENDBLK
  5
FC7
  8
0
  0
BLOCK
  8
0
  2
*U185
 70
     1
 10
0.0
 20
0.0
 30
0.0
  3
*U185
  1

  0
TEXT
  5
FC9
  8
\U+6807\U+6CE8
 62
     0
 10
105347.21587460639
 20
-56860.378521653824
 30
0.0
 40
18.399999999999999
  1
120
 50
90.0
  0
ENDBLK
  5
FCB
  8
0
  0
BLOCK
  8
0
  2
*U186
 70
     1
 10
0.0
 20
0.0
 30
0.0
  3
*U186
  1

  0
TEXT
  5
FCD
  8
\U+6807\U+6CE8
 62
     0
 10
105182.31038808791
 20
-56768.002966098262
 30
0.0
 40
18.399999999999999
  1
76.2
 50
90.0
  0
ENDBLK
  5
FCF
  8
0
  0
BLOCK
  8
0
  2
*U187
 70
     1
 10
0.0
 20
0.0
 30
0.0
  3
*U187
  1

  0
TEXT
  5
FD1
  8
\U+6807\U+6CE8
 62
     0
 10
105182.3503880879
 20
-57273.41598197128
 30
0.0
 40
18.399999999999999
  1
30
 50
90.0
  0
ENDBLK
  5
FD3
  8
0
  0
BLOCK
  8
0
  2
*U188
 70
     1
 10
0.0
 20
0.0
 30
0.0
  3
*U188
  1

  0
TEXT
  5
FD5
  8
\U+6807\U+6CE8
 62
     0
 10
105263.01332034419
 20
-56807.792168804161
 30
0.0
 40
18.399999999999999
  1
R15
 50
302.52844239744769
  0
ENDBLK
  5
FD7
  8
0
  0
BLOCK
  8
0
  2
*U189
 70
     1
 10
0.0
 20
0.0
 30
0.0
  3
*U189
  1

  0
TEXT
  5
FD9
  8
\U+6807\U+6CE8
 62
     0
 10
105273.54822615501
 20
-57580.233962762657
 30
0.0
 40
18.399999999999999
  1
R15
 50
37.544412238757857
  0
ENDBLK
  5
FDB
  8
0
  0
BLOCK
  8
0
  2
*U190
 70
     1
 10
0.0
 20
0.0
 30
0.0
  3
*U190
  1

  0
TEXT
  5
FDD
  8
\U+6807\U+6CE8
 62
     0
 10
105264.5910862374
 20
-57089.519310431628
 30
0.0
 40
18.399999999999999
  1
30
  0
ENDBLK
  5
FDF
  8
0
  0
BLOCK
  8
0
  2
*U191
 70
     1
 10
0.0
 20
0.0
 30
0.0
  3
*U191
  1

  0
TEXT
  5
FE1
  8
\U+6807\U+6CE8
 62
     0
 10
105474.9369592532
 20
-56596.139163488442
 30
0.0
 40
18.399999999999999
  1
606.1
  0
ENDBLK
  5
FE3
  8
0
  0
BLOCK
  8
0
  2
*U192
 70
     1
 10
0.0
 20
0.0
 30
0.0
  3
*U192
  1

  0
TEXT
  5
FE5
  8
\U+6807\U+6CE8
 62
     0
 10
105132.7545265294
 20
-56992.847410542701
 30
0.0
 40
18.399999999999999
  1
512.6
 50
90.0
  0
ENDBLK
  5
FE7
  8
0
  0
BLOCK
  8
0
  2
*U193
 70
     1
 10
0.0
 20
0.0
 30
0.0
  3
*U193
  1

  0
TEXT
  5
FE9
  8
\U+6807\U+6CE8
 62
     0
 10
105571.8960202548
 20
-56800.273487980012
 30
0.0
 40
18.399999999999999
  1
Ø
 50
314.31237965423651
  0
TEXT
  5
FEA
  8
\U+6807\U+6CE8
 62
     0
 10
105585.86322504529
 20
-56814.580029044613
 30
0.0
 40
18.399999999999999
  1
38
 50
314.31237965423651
  0
ENDBLK
  5
FEC
  8
0
  0
BLOCK
  8
0
  2
*U194
 70
     1
 10
0.0
 20
0.0
 30
0.0
  3
*U194
  1

  0
TEXT
  5
FEE
  8
\U+5916\U+6846\U+7EBF1
 62
     0
 10
102728.56188526269
 20
-57631.008544122371
 30
0.0
 40
18.399999999999999
  1
R15
 50
36.000290318001412
  0
ENDBLK
  5
FF0
  8
0
  0
BLOCK
  8
0
  2
*U195
 70
     1
 10
0.0
 20
0.0
 30
0.0
  3
*U195
  1

  0
TEXT
  5
FF3
  8
\U+6807\U+6CE8
 62
     0
 10
1960.5272021614201
 20
5441.5058998631921
 30
0.0
 40
23.0
  1
646
  0
ENDBLK
  5
FF5
  8
0
  0
BLOCK
  8
0
  2
*U196
 70
     1
 10
0.0
 20
0.0
 30
0.0
  3
*U196
  1

  0
TEXT
  5
FF7
  8
\U+6807\U+6CE8
 62
     0
 10
1586.515095789345
 20
5134.9699044504296
 30
0.0
 40
23.0
  1
406.4
 50
90.0
  0
ENDBLK
  5
FF9
  8
0
  0
BLOCK
  8
0
  2
*U197
 70
     1
 10
0.0
 20
0.0
 30
0.0
  3
*U197
  1

  0
TEXT
  5
FFB
  8
\U+6807\U+6CE8
 62
     0
 10
1574.473565496005
 20
4627.3315303688078
 30
0.0
 40
23.0
  1
228.6
 50
90.0
  0
ENDBLK
  5
FFD
  8
0
  0
BLOCK
  8
0
  2
*U198
 70
     1
 10
0.0
 20
0.0
 30
0.0
  3
*U198
  1

  0
TEXT
  5
FFF
  8
\U+6807\U+6CE8
 62
     0
 10
1872.410270664298
 20
5298.614348894871
 30
0.0
 40
18.399999999999999
  1
120
 50
90.0
  0
ENDBLK
  5
1001
  8
0
  0
BLOCK
  8
0
  2
*U199
 70
     1
 10
0.0
 20
0.0
 30
0.0
  3
*U199
  1

  0
TEXT
  5
1003
  8
\U+6807\U+6CE8
 62
     0
 10
1587.765095789345
 20
5429.8695869901403
 30
0.0
 40
18.399999999999999
  1
20
 50
90.0
  0
ENDBLK
  5
1005
  8
0
  0
BLOCK
  8
0
  2
*U200
 70
     1
 10
0.0
 20
0.0
 30
0.0
  3
*U200
  1

  0
TEXT
  5
1007
  8
\U+6807\U+6CE8
 62
     0
 10
1689.6677577169901
 20
5140.8215843229
 30
0.0
 40
18.399999999999999
  1
20
  0
ENDBLK
  5
1009
  8
0
  0
BLOCK
  8
0
  2
*U201
 70
     1
 10
0.0
 20
0.0
 30
0.0
  3
*U201
  1

  0
TEXT
  5
100B
  8
\U+6807\U+6CE8
 62
     0
 10
1960.527202161413
 20
5492.6915288148048
 30
0.0
 40
23.0
  1
686
  0
ENDBLK
  5
100D
  8
0
  0
BLOCK
  8
0
  2
*U202
 70
     1
 10
0.0
 20
0.0
 30
0.0
  3
*U202
  1

  0
TEXT
  5
100F
  8
\U+6807\U+6CE8
 62
     0
 10
1537.0788296499029
 20
5134.9699044504296
 30
0.0
 40
23.0
  1
446.4
 50
90.0
  0
ENDBLK
  5
1011
  8
0
  0
BLOCK
  8
0
  2
*U203
 70
     1
 10
0.0
 20
0.0
 30
0.0
  3
*U203
  1

  0
TEXT
  5
1013
  8
\U+6807\U+6CE8
 62
     0
 10
4601.1498608247412
 20
5492.8805794313294
 30
0.0
 40
18.399999999999999
  1
546.1
  0
ENDBLK
  5
1015
  8
0
  0
BLOCK
  8
0
  2
*U204
 70
     1
 10
0.0
 20
0.0
 30
0.0
  3
*U204
  1

  0
TEXT
  5
1017
  8
\U+6807\U+6CE8
 62
     0
 10
4308.7166229926752
 20
5200.7540513099648
 30
0.0
 40
18.399999999999999
  1
406.4
 50
90.0
  0
ENDBLK
  5
1019
  8
0
  0
BLOCK
  8
0
  2
*U205
 70
     1
 10
0.0
 20
0.0
 30
0.0
  3
*U205
  1

  0
TEXT
  5
101B
  8
\U+6807\U+6CE8
 62
     0
 10
4297.4639132481198
 20
4687.7532492932778
 30
0.0
 40
18.399999999999999
  1
228.6
 50
90.0
  0
ENDBLK
  5
101D
  8
0
  0
BLOCK
  8
0
  2
*U206
 70
     1
 10
0.0
 20
0.0
 30
0.0
  3
*U206
  1

  0
TEXT
  5
101F
  8
\U+6807\U+6CE8
 62
     0
 10
4528.231140119281
 20
5356.2207179766328
 30
0.0
 40
18.399999999999999
  1
120
 50
90.0
  0
ENDBLK
  5
1021
  8
0
  0
BLOCK
  8
0
  2
*U207
 70
     1
 10
0.0
 20
0.0
 30
0.0
  3
*U207
  1

  0
TEXT
  5
1023
  8
\U+6807\U+6CE8
 62
     0
 10
4285.2766229927038
 20
5379.6854798813911
 30
0.0
 40
18.399999999999999
  1
20
 50
90.0
  0
ENDBLK
  5
1025
  8
0
  0
BLOCK
  8
0
  2
*U208
 70
     1
 10
0.0
 20
0.0
 30
0.0
  3
*U208
  1

  0
TEXT
  5
1027
  8
\U+6807\U+6CE8
 62
     0
 10
4387.9198608247243
 20
5113.6479591117049
 30
0.0
 40
18.399999999999999
  1
20
  0
ENDBLK
  5
1029
  8
0
  0
BLOCK
  8
0
  2
*U209
 70
     1
 10
0.0
 20
0.0
 30
0.0
  3
*U209
  1

  0
TEXT
  5
102B
  8
\U+6807\U+6CE8
 62
     0
 10
4601.1498608247412
 20
5544.2140629180121
 30
0.0
 40
18.399999999999999
  1
586.1
  0
ENDBLK
  5
102D
  8
0
  0
BLOCK
  8
0
  2
*U210
 70
     1
 10
0.0
 20
0.0
 30
0.0
  3
*U210
  1

  0
TEXT
  5
102F
  8
\U+6807\U+6CE8
 62
     0
 10
4246.6732388959599
 20
5200.7540513099648
 30
0.0
 40
18.399999999999999
  1
446.4
 50
90.0
  0
ENDBLK
  5
1031
  8
0
  0
BLOCK
  8
0
  2
*U211
 70
     1
 10
0.0
 20
0.0
 30
0.0
  3
*U211
  1

  0
TEXT
  5
1033
  8
\U+6807\U+6CE8
 62
     0
 10
7658.3024063035946
 20
4718.5818303820552
 30
0.0
 40
18.399999999999999
  1
228.6
 50
90.0
  0
ENDBLK
  5
1035
  8
0
  0
BLOCK
  8
0
  2
*U212
 70
     1
 10
0.0
 20
0.0
 30
0.0
  3
*U212
  1

  0
TEXT
  5
1037
  8
\U+6807\U+6CE8
 62
     0
 10
7906.966289050778
 20
5115.710262437954
 30
0.0
 40
18.399999999999999
  1
400
  0
ENDBLK
  5
1039
  8
0
  0
BLOCK
  8
0
  2
*U213
 70
     1
 10
0.0
 20
0.0
 30
0.0
  3
*U213
  1

  0
TEXT
  5
103B
  8
\U+6807\U+6CE8
 62
     0
 10
8296.6596223841134
 20
5115.710262437954
 30
0.0
 40
18.399999999999999
  1
330
  0
ENDBLK
  5
103D
  8
0
  0
BLOCK
  8
0
  2
*U214
 70
     1
 10
0.0
 20
0.0
 30
0.0
  3
*U214
  1

  0
TEXT
  5
103F
  8
\U+6807\U+6CE8
 62
     0
 10
7670.4913297469129
 20
5390.6914405670386
 30
0.0
 40
18.399999999999999
  1
470
 50
90.0
  0
ENDBLK
  5
1041
  8
0
  0
BLOCK
  8
0
  2
*U215
 70
     1
 10
0.0
 20
0.0
 30
0.0
  3
*U215
  1

  0
TEXT
  5
1043
  8
\U+6807\U+6CE8
 62
     0
 10
8546.127508377198
 20
5355.6914405670386
 30
0.0
 40
18.399999999999999
  1
400
 50
90.0
  0
ENDBLK
  5
1045
  8
0
  0
BLOCK
  8
0
  2
*U216
 70
     1
 10
0.0
 20
0.0
 30
0.0
  3
*U216
  1

  0
TEXT
  5
1047
  8
\U+6807\U+6CE8
 62
     0
 10
8527.5387346021089
 20
4743.2662748264956
 30
0.0
 40
18.399999999999999
  1
177.8
 50
90.0
  0
ENDBLK
  5
1049
  8
0
  0
BLOCK
  8
0
  2
*U217
 70
     1
 10
0.0
 20
0.0
 30
0.0
  3
*U217
  1

  0
TEXT
  5
104B
  8
\U+6807\U+6CE8
 62
     0
 10
8179.0596223841139
 20
5415.1136627892602
 30
0.0
 40
18.399999999999999
  1
25
  0
ENDBLK
  5
104D
  8
0
  0
BLOCK
  8
0
  2
*U218
 70
     1
 10
0.0
 20
0.0
 30
0.0
  3
*U218
  1

  0
TEXT
  5
104F
  8
\U+6807\U+6CE8
 62
     0
 10
8272.6613054650334
 20
5709.1348858130359
 30
0.0
 40
18.399999999999999
  1
70
 50
90.0
  0
ENDBLK
  5
1051
  8
0
  0
BLOCK
  8
0
  2
*U219
 70
     1
 10
0.0
 20
0.0
 30
0.0
  3
*U219
  1

  0
TEXT
  5
1053
  8
\U+6807\U+6CE8
 62
     0
 10
7837.7792500701726
 20
5564.6692183448304
 30
0.0
 40
18.399999999999999
  1
120
 50
90.0
  0
ENDBLK
  5
1055
  8
0
  0
BLOCK
  8
0
  2
*U220
 70
     1
 10
0.0
 20
0.0
 30
0.0
  3
*U220
  1

  0
TEXT
  5
1057
  8
\U+6807\U+6CE8
 62
     0
 10
8414.9651835678596
 20
5494.6692183448167
 30
0.0
 40
18.399999999999999
  1
120
 50
90.0
  0
ENDBLK
  5
1059
  8
0
  0
BLOCK
  8
0
  2
*U221
 70
     1
 10
0.0
 20
0.0
 30
0.0
  3
*U221
  1

  0
TEXT
  5
105B
  8
\U+6807\U+6CE8
 62
     0
 10
7754.059622384113
 20
5368.1423598318679
 30
0.0
 40
18.399999999999999
  1
20
  0
ENDBLK
  5
105D
  8
0
  0
BLOCK
  8
0
  2
*U222
 70
     1
 10
0.0
 20
0.0
 30
0.0
  3
*U222
  1

  0
TEXT
  5
105F
  8
\U+6807\U+6CE8
 62
     0
 10
8427.5485112730021
 20
5303.8265003479937
 30
0.0
 40
18.399999999999999
  1
20
  0
ENDBLK
  5
1061
  8
0
  0
BLOCK
  8
0
  2
*U223
 70
     1
 10
0.0
 20
0.0
 30
0.0
  3
*U223
  1

  0
TEXT
  5
1063
  8
\U+6807\U+6CE8
 62
     0
 10
8242.7200037989751
 20
5521.2736627892627
 30
0.0
 40
18.399999999999999
  1
20
 50
90.0
  0
ENDBLK
  5
1065
  8
0
  0
BLOCK
  8
0
  2
*U224
 70
     1
 10
0.0
 20
0.0
 30
0.0
  3
*U224
  1

  0
TEXT
  5
1067
  8
\U+6807\U+6CE8
 62
     0
 10
8030.2997133022391
 20
5591.2736627892591
 30
0.0
 40
18.399999999999999
  1
20
 50
90.0
  0
ENDBLK
  5
1069
  8
0
  0
BLOCK
  8
0
  2
*U225
 70
     1
 10
0.0
 20
0.0
 30
0.0
  3
*U225
  1

  0
TEXT
  5
106B
  8
\U+6807\U+6CE8
 62
     0
 10
8084.2618446063361
 20
5067.1924294255268
 30
0.0
 40
18.399999999999999
  1
795
  0
ENDBLK
  5
106D
  8
0
  0
BLOCK
  8
0
  2
*U226
 70
     1
 10
0.0
 20
0.0
 30
0.0
  3
*U226
  1

  0
TEXT
  5
106F
  8
\U+6807\U+6CE8
 62
     0
 10
7603.8454335734532
 20
5390.3847739003631
 30
0.0
 40
18.399999999999999
  1
510
 50
90.0
  0
ENDBLK
  5
1071
  8
0
  0
BLOCK
  8
0
  2
*U227
 70
     1
 10
0.0
 20
0.0
 30
0.0
  3
*U227
  1

  0
TEXT
  5
1073
  8
\U+6807\U+6CE8
 62
     0
 10
8611.4078044344842
 20
5355.6914405670386
 30
0.0
 40
18.399999999999999
  1
440
 50
90.0
  0
ENDBLK
  5
1075
  8
0
  0
BLOCK
  8
0
  2
*U228
 70
     1
 10
0.0
 20
0.0
 30
0.0
  3
*U228
  1

  0
TEXT
  5
1077
  8
\U+6807\U+6CE8
 62
     0
 10
8214.4079155261934
 20
4820.212941493176
 30
0.0
 40
18.399999999999999
  1
65
 50
90.0
  0
ENDBLK
  5
1079
  8
0
  0
BLOCK
  8
0
  2
*U229
 70
     1
 10
0.0
 20
0.0
 30
0.0
  3
*U229
  1

  0
TEXT
  5
107B
  8
\U+6807\U+6CE8
 62
     0
 10
2108.91545318721
 20
2234.9007244999061
 30
0.0
 40
23.0
  1
646
  0
ENDBLK
  5
107D
  8
0
  0
BLOCK
  8
0
  2
*U230
 70
     1
 10
0.0
 20
0.0
 30
0.0
  3
*U230
  1

  0
TEXT
  5
107F
  8
\U+6807\U+6CE8
 62
     0
 10
1746.973459302226
 20
1825.0969098323251
 30
0.0
 40
23.0
  1
406.4
 50
90.0
  0
ENDBLK
  5
1081
  8
0
  0
BLOCK
  8
0
  2
*U231
 70
     1
 10
0.0
 20
0.0
 30
0.0
  3
*U231
  1

  0
TEXT
  5
1083
  8
\U+6807\U+6CE8
 62
     0
 10
1722.8618165218029
 20
1317.4585357507119
 30
0.0
 40
23.0
  1
228.6
 50
90.0
  0
ENDBLK
  5
1085
  8
0
  0
BLOCK
  8
0
  2
*U232
 70
     1
 10
0.0
 20
0.0
 30
0.0
  3
*U232
  1

  0
TEXT
  5
1087
  8
\U+6807\U+6CE8
 62
     0
 10
1748.223459302226
 20
2081.116909832328
 30
0.0
 40
18.399999999999999
  1
76.2
 50
90.0
  0
ENDBLK
  5
1089
  8
0
  0
BLOCK
  8
0
  2
*U233
 70
     1
 10
0.0
 20
0.0
 30
0.0
  3
*U233
  1

  0
TEXT
  5
108B
  8
\U+6807\U+6CE8
 62
     0
 10
1748.2234593022249
 20
1578.945798721209
 30
0.0
 40
18.399999999999999
  1
30
 50
90.0
  0
ENDBLK
  5
108D
  8
0
  0
BLOCK
  8
0
  2
*U234
 70
     1
 10
0.0
 20
0.0
 30
0.0
  3
*U234
  1

  0
TEXT
  5
108F
  8
\U+6807\U+6CE8
 62
     0
 10
1837.851564298328
 20
1854.0485897048029
 30
0.0
 40
18.399999999999999
  1
30
  0
ENDBLK
  5
1091
  8
0
  0
BLOCK
  8
0
  2
*U235
 70
     1
 10
0.0
 20
0.0
 30
0.0
  3
*U235
  1

  0
TEXT
  5
1093
  8
\U+6807\U+6CE8
 62
     0
 10
2108.659897631655
 20
2276.957550868673
 30
0.0
 40
23.0
  1
706
  0
ENDBLK
  5
1095
  8
0
  0
BLOCK
  8
0
  2
*U236
 70
     1
 10
0.0
 20
0.0
 30
0.0
  3
*U236
  1

  0
TEXT
  5
1097
  8
\U+6807\U+6CE8
 62
     0
 10
1693.1074343655309
 20
1848.069132054545
 30
0.0
 40
23.0
  1
512.6
 50
90.0
  0
ENDBLK
  5
1099
  8
0
  0
BLOCK
  8
0
  2
*U237
 70
     1
 10
0.0
 20
0.0
 30
0.0
  3
*U237
  1

  0
TEXT
  5
109B
  8
\U+6807\U+6CE8
 62
     0
 10
4620.9481827789059
 20
2285.4002616481789
 30
0.0
 40
18.399999999999999
  1
546.1
  0
ENDBLK
  5
109D
  8
0
  0
BLOCK
  8
0
  2
*U238
 70
     1
 10
0.0
 20
0.0
 30
0.0
  3
*U238
  1

  0
TEXT
  5
109F
  8
\U+6807\U+6CE8
 62
     0
 10
4328.5149449468399
 20
1906.727993512568
 30
0.0
 40
18.399999999999999
  1
406.4
 50
90.0
  0
ENDBLK
  5
10A1
  8
0
  0
BLOCK
  8
0
  2
*U239
 70
     1
 10
0.0
 20
0.0
 30
0.0
  3
*U239
  1

  0
TEXT
  5
10A3
  8
\U+6807\U+6CE8
 62
     0
 10
4317.2622352022818
 20
1393.7271914958819
 30
0.0
 40
18.399999999999999
  1
228.6
 50
90.0
  0
ENDBLK
  5
10A5
  8
0
  0
BLOCK
  8
0
  2
*U240
 70
     1
 10
0.0
 20
0.0
 30
0.0
  3
*U240
  1

  0
TEXT
  5
10A7
  8
\U+6807\U+6CE8
 62
     0
 10
4493.3804314653489
 20
2062.1946601792501
 30
0.0
 40
18.399999999999999
  1
120
 50
90.0
  0
ENDBLK
  5
10A9
  8
0
  0
BLOCK
  8
0
  2
*U241
 70
     1
 10
0.0
 20
0.0
 30
0.0
  3
*U241
  1

  0
TEXT
  5
10AB
  8
\U+6807\U+6CE8
 62
     0
 10
4328.4749449468609
 20
2154.5702157347951
 30
0.0
 40
18.399999999999999
  1
76.2
 50
90.0
  0
ENDBLK
  5
10AD
  8
0
  0
BLOCK
  8
0
  2
*U242
 70
     1
 10
0.0
 20
0.0
 30
0.0
  3
*U242
  1

  0
TEXT
  5
10AF
  8
\U+6807\U+6CE8
 62
     0
 10
4328.5149449468399
 20
1652.3991046236929
 30
0.0
 40
18.399999999999999
  1
30
 50
90.0
  0
ENDBLK
  5
10B1
  8
0
  0
BLOCK
  8
0
  2
*U243
 70
     1
 10
0.0
 20
0.0
 30
0.0
  3
*U243
  1

  0
TEXT
  5
10B3
  8
\U+6807\U+6CE8
 62
     0
 10
4621.1015161122386
 20
2326.4340183446229
 30
0.0
 40
18.399999999999999
  1
606.1
  0
ENDBLK
  5
10B5
  8
0
  0
BLOCK
  8
0
  2
*U244
 70
     1
 10
0.0
 20
0.0
 30
0.0
  3
*U244
  1

  0
TEXT
  5
10B7
  8
\U+6807\U+6CE8
 62
     0
 10
4278.9190833883304
 20
1929.7257712903479
 30
0.0
 40
18.399999999999999
  1
512.6
 50
90.0
  0
ENDBLK
  5
10B9
  8
0
  0
BLOCK
  8
0
  2
*U245
 70
     1
 10
0.0
 20
0.0
 30
0.0
  3
*U245
  1

  0
TEXT
  5
10BB
  8
\U+6807\U+6CE8
 62
     0
 10
1692.6442720179939
 20
5353.0969502689168
 30
0.0
 40
18.399999999999999
  1
R15
 50
309.8156322812153
  0
ENDBLK
  5
10BD
  8
0
  0
BLOCK
  8
0
  2
*U246
 70
     1
 10
0.0
 20
0.0
 30
0.0
  3
*U246
  1

  0
TEXT
  5
10BF
  8
\U+6807\U+6CE8
 62
     0
 10
1699.081497031508
 20
4585.7770324362637
 30
0.0
 40
18.399999999999999
  1
R15
 50
46.749999999559918
  0
ENDBLK
  5
10C1
  8
0
  0
BLOCK
  8
0
  2
*U247
 70
     1
 10
0.0
 20
0.0
 30
0.0
  3
*U247
  1

  0
TEXT
  5
10C3
  8
\U+6807\U+6CE8
 62
     0
 10
4389.3795552489137
 20
5408.8070708262376
 30
0.0
 40
18.399999999999999
  1
R15
 50
302.52844239723231
  0
ENDBLK
  5
10C5
  8
0
  0
BLOCK
  8
0
  2
*U248
 70
     1
 10
0.0
 20
0.0
 30
0.0
  3
*U248
  1

  0
TEXT
  5
10C7
  8
\U+6807\U+6CE8
 62
     0
 10
4399.9144610598669
 20
4636.3652768678103
 30
0.0
 40
18.399999999999999
  1
R15
 50
37.544412238669693
  0
ENDBLK
  5
10C9
  8
0
  0
BLOCK
  8
0
  2
*U249
 70
     1
 10
0.0
 20
0.0
 30
0.0
  3
*U249
  1

  0
TEXT
  5
10CB
  8
\U+6807\U+6CE8
 62
     0
 10
7758.0770032130422
 20
5620.8128874829408
 30
0.0
 40
18.399999999999999
  1
R15
 50
315.69689450070928
  0
ENDBLK
  5
10CD
  8
0
  0
BLOCK
  8
0
  2
*U250
 70
     1
 10
0.0
 20
0.0
 30
0.0
  3
*U250
  1

  0
TEXT
  5
10CF
  8
\U+6807\U+6CE8
 62
     0
 10
7763.9504411491234
 20
4668.5862396570619
 30
0.0
 40
18.399999999999999
  1
R15
 50
45.115748386770662
  0
ENDBLK
  5
10D1
  8
0
  0
BLOCK
  8
0
  2
*U251
 70
     1
 10
0.0
 20
0.0
 30
0.0
  3
*U251
  1

  0
TEXT
  5
10D3
  8
\U+6807\U+6CE8
 62
     0
 10
1980.5978918325311
 20
1988.7413542767879
 30
0.0
 40
18.399999999999999
  1
120
 50
90.0
  0
ENDBLK
  5
10D5
  8
0
  0
BLOCK
  8
0
  2
*U252
 70
     1
 10
0.0
 20
0.0
 30
0.0
  3
*U252
  1

  0
TEXT
  5
10D7
  8
\U+6807\U+6CE8
 62
     0
 10
1841.0325230438491
 20
2043.223955651207
 30
0.0
 40
18.399999999999999
  1
R15
 50
309.81563228215953
  0
ENDBLK
  5
10D9
  8
0
  0
BLOCK
  8
0
  2
*U253
 70
     1
 10
0.0
 20
0.0
 30
0.0
  3
*U253
  1

  0
TEXT
  5
10DB
  8
\U+5916\U+6846\U+7EBF1
 62
     0
 10
1870.4733398658359
 20
1288.474545119527
 30
0.0
 40
18.399999999999999
  1
R15
 50
36.000290318001412
  0
ENDBLK
  5
10DD
  8
0
  0
BLOCK
  8
0
  2
*U254
 70
     1
 10
0.0
 20
0.0
 30
0.0
  3
*U254
  1

  0
TEXT
  5
10DF
  8
\U+6807\U+6CE8
 62
     0
 10
2184.1148322467361
 20
2049.8695989013809
 30
0.0
 40
18.399999999999999
  1
Ø
 50
306.7611634770401
  0
TEXT
  5
10E0
  8
\U+6807\U+6CE8
 62
     0
 10
2196.0808538305259
 20
2033.8516635054409
 30
0.0
 40
18.399999999999999
  1
38
 50
306.7611634770401
  0
ENDBLK
  5
10E2
  8
0
  0
BLOCK
  8
0
  2
*U255
 70
     1
 10
0.0
 20
0.0
 30
0.0
  3
*U255
  1

  0
TEXT
  5
10E4
  8
\U+6807\U+6CE8
 62
     0
 10
4409.1778772031194
 20
2114.781013028899
 30
0.0
 40
18.399999999999999
  1
R15
 50
302.52844239743268
  0
ENDBLK
  5
10E6
  8
0
  0
BLOCK
  8
0
  2
*U256
 70
     1
 10
0.0
 20
0.0
 30
0.0
  3
*U256
  1

  0
TEXT
  5
10E8
  8
\U+6807\U+6CE8
 62
     0
 10
4407.5137383344427
 20
1833.0538714014499
 30
0.0
 40
18.399999999999999
  1
30
  0
ENDBLK
  5
10EA
  8
0
  0
BLOCK
  8
0
  2
*U257
 70
     1
 10
0.0
 20
0.0
 30
0.0
  3
*U257
  1

  0
TEXT
  5
10EC
  8
\U+6807\U+6CE8
 62
     0
 10
4419.7127830139707
 20
1342.339219070403
 30
0.0
 40
18.399999999999999
  1
R15
 50
37.544412238755037
  0
ENDBLK
  5
10EE
  8
0
  0
BLOCK
  8
0
  2
*U258
 70
     1
 10
0.0
 20
0.0
 30
0.0
  3
*U258
  1

  0
TEXT
  5
10F0
  8
\U+6807\U+6CE8
 62
     0
 10
4718.567996806285
 20
2122.7950780782048
 30
0.0
 40
18.399999999999999
  1
Ø
 50
314.31237965424378
  0
TEXT
  5
10F1
  8
\U+6807\U+6CE8
 62
     0
 10
4732.5352015967528
 20
2108.4885370135939
 30
0.0
 40
18.399999999999999
  1
38
 50
314.31237965424378
  0
ENDBLK
  5
10F3
  8
0
  0
ENDSEC
  0
SECTION
  2
ENTITIES
  0
TEXT
  5
63F
  8
\U+6CE8\U+91CA
  6
CONTINUOUS
 62
     0
 10
4435.7532982672237
 20
5592.6373644985688
 30
0.0
 40
48.0
  1
RRI586S
  7
\U+6837\U+5F0F_1
  0
POLYLINE
  5
EB3
  8
\U+5916\U+6846\U+7EBF1
 62
     0
 66
     1
 10
0.0
 20
0.0
 30
0.0
 70
     1
  0
VERTEX
  5
1106
  8
\U+5916\U+6846\U+7EBF1
 62
     0
 10
4375.2487497136126
 20
5033.4651624210728
 30
0.0
  0
VERTEX
  5
1107
  8
\U+5916\U+6846\U+7EBF1
 62
     0
 10
4891.3487497136502
 20
5033.4651624210728
 30
0.0
 42
0.414213562373104
  0
VERTEX
  5
1108
  8
\U+5916\U+6846\U+7EBF1
 62
     0
 10
4903.1487497136486
 20
5045.2651624210748
 30
0.0
  0
VERTEX
  5
1109
  8
\U+5916\U+6846\U+7EBF1
 62
     0
 10
4903.1487497136486
 20
5421.6651624210763
 30
0.0
 42
0.4142135623731042
  0
VERTEX
  5
110A
  8
\U+5916\U+6846\U+7EBF1
 62
     0
 10
4891.3487497136502
 20
5433.4651624210755
 30
0.0
  0
VERTEX
  5
110B
  8
\U+5916\U+6846\U+7EBF1
 62
     0
 10
4375.2487497136126
 20
5433.4651624210755
 30
0.0
 42
0.4142135623731041
  0
VERTEX
  5
110C
  8
\U+5916\U+6846\U+7EBF1
 62
     0
 10
4363.4487497136133
 20
5421.6651624210763
 30
0.0
  0
VERTEX
  5
110D
  8
\U+5916\U+6846\U+7EBF1
 62
     0
 10
4363.4487497136133
 20
5045.2651624210748
 30
0.0
 42
0.4142135623731042
  0
SEQEND
  5
110E
  8
\U+5916\U+6846\U+7EBF1
 62
     0
  0
ENDSEC
  0
EOF
